  0
SECTION
  2
HEADER
  9
$ACADVER
  1
AC1014
  9
$ACADMAINTVER
 70
     9
  9
$DWGCODEPAGE
  3
ANSI_1250
  9
$INSBASE
 10
0.0
 20
0.0
 30
0.0
  9
$EXTMIN
 10
-32.6792
 20
-19.1973
 30
0.0
  9
$EXTMAX
 10
32.6793
 20
19.1973
 30
0.0
  9
$LIMMIN
 10
0.0
 20
0.0
  9
$LIMMAX
 10
12.0
 20
9.0
  9
$ORTHOMODE
 70
     0
  9
$REGENMODE
 70
     1
  9
$FILLMODE
 70
     1
  9
$QTEXTMODE
 70
     0
  9
$MIRRTEXT
 70
     1
  9
$DRAGMODE
 70
     2
  9
$LTSCALE
 40
1.0
  9
$OSMODE
 70
    37
  9
$ATTMODE
 70
     1
  9
$TEXTSIZE
 40
0.2
  9
$TRACEWID
 40
0.05
  9
$TEXTSTYLE
  7
STANDARD
  9
$CLAYER
  8
0
  9
$CELTYPE
  6
BYLAYER
  9
$CECOLOR
 62
   256
  9
$CELTSCALE
 40
1.0
  9
$DELOBJ
 70
     1
  9
$DISPSILH
 70
     0
  9
$DIMSCALE
 40
1.0
  9
$DIMASZ
 40
0.18
  9
$DIMEXO
 40
0.0625
  9
$DIMDLI
 40
0.38
  9
$DIMRND
 40
0.0
  9
$DIMDLE
 40
0.0
  9
$DIMEXE
 40
0.18
  9
$DIMTP
 40
0.0
  9
$DIMTM
 40
0.0
  9
$DIMTXT
 40
0.18
  9
$DIMCEN
 40
0.09
  9
$DIMTSZ
 40
0.0
  9
$DIMTOL
 70
     0
  9
$DIMLIM
 70
     0
  9
$DIMTIH
 70
     1
  9
$DIMTOH
 70
     1
  9
$DIMSE1
 70
     0
  9
$DIMSE2
 70
     0
  9
$DIMTAD
 70
     0
  9
$DIMZIN
 70
     0
  9
$DIMBLK
  1

  9
$DIMASO
 70
     1
  9
$DIMSHO
 70
     1
  9
$DIMPOST
  1

  9
$DIMAPOST
  1

  9
$DIMALT
 70
     0
  9
$DIMALTD
 70
     2
  9
$DIMALTF
 40
25.4
  9
$DIMLFAC
 40
1.0
  9
$DIMTOFL
 70
     0
  9
$DIMTVP
 40
0.0
  9
$DIMTIX
 70
     0
  9
$DIMSOXD
 70
     0
  9
$DIMSAH
 70
     0
  9
$DIMBLK1
  1

  9
$DIMBLK2
  1

  9
$DIMSTYLE
  2
STANDARD
  9
$DIMCLRD
 70
     0
  9
$DIMCLRE
 70
     0
  9
$DIMCLRT
 70
     0
  9
$DIMTFAC
 40
1.0
  9
$DIMGAP
 40
0.09
  9
$DIMJUST
 70
     0
  9
$DIMSD1
 70
     0
  9
$DIMSD2
 70
     0
  9
$DIMTOLJ
 70
     1
  9
$DIMTZIN
 70
     0
  9
$DIMALTZ
 70
     0
  9
$DIMALTTZ
 70
     0
  9
$DIMFIT
 70
     3
  9
$DIMUPT
 70
     0
  9
$DIMUNIT
 70
     2
  9
$DIMDEC
 70
     4
  9
$DIMTDEC
 70
     4
  9
$DIMALTU
 70
     2
  9
$DIMALTTD
 70
     2
  9
$DIMTXSTY
  7
STANDARD
  9
$DIMAUNIT
 70
     0
  9
$LUNITS
 70
     2
  9
$LUPREC
 70
     4
  9
$SKETCHINC
 40
0.1
  9
$FILLETRAD
 40
0.5
  9
$AUNITS
 70
     0
  9
$AUPREC
 70
     0
  9
$MENU
  1
.
  9
$ELEVATION
 40
0.0
  9
$PELEVATION
 40
0.0
  9
$THICKNESS
 40
0.0
  9
$LIMCHECK
 70
     0
  9
$CHAMFERA
 40
0.5
  9
$CHAMFERB
 40
0.5
  9
$CHAMFERC
 40
1.0
  9
$CHAMFERD
 40
0.0
  9
$SKPOLY
 70
     0
  9
$TDCREATE
 40
2456303.535541238
  9
$TDUPDATE
 40
2456303.53554125
  9
$TDINDWG
 40
0.0000000116
  9
$TDUSRTIMER
 40
0.0000000116
  9
$USRTIMER
 70
     1
  9
$ANGBASE
 50
0.0
  9
$ANGDIR
 70
     0
  9
$PDMODE
 70
     0
  9
$PDSIZE
 40
0.0
  9
$PLINEWID
 40
0.0
  9
$COORDS
 70
     1
  9
$SPLFRAME
 70
     0
  9
$SPLINETYPE
 70
     6
  9
$SPLINESEGS
 70
     8
  9
$ATTDIA
 70
     0
  9
$ATTREQ
 70
     1
  9
$HANDLING
 70
     1
  9
$HANDSEED
  5
BE
  9
$SURFTAB1
 70
     6
  9
$SURFTAB2
 70
     6
  9
$SURFTYPE
 70
     6
  9
$SURFU
 70
     6
  9
$SURFV
 70
     6
  9
$UCSNAME
  2

  9
$UCSORG
 10
0.0
 20
0.0
 30
0.0
  9
$UCSXDIR
 10
1.0
 20
0.0
 30
0.0
  9
$UCSYDIR
 10
0.0
 20
1.0
 30
0.0
  9
$PUCSNAME
  2

  9
$PUCSORG
 10
0.0
 20
0.0
 30
0.0
  9
$PUCSXDIR
 10
1.0
 20
0.0
 30
0.0
  9
$PUCSYDIR
 10
0.0
 20
1.0
 30
0.0
  9
$USERI1
 70
     0
  9
$USERI2
 70
     0
  9
$USERI3
 70
     0
  9
$USERI4
 70
     0
  9
$USERI5
 70
     0
  9
$USERR1
 40
0.0
  9
$USERR2
 40
0.0
  9
$USERR3
 40
0.0
  9
$USERR4
 40
0.0
  9
$USERR5
 40
0.0
  9
$WORLDVIEW
 70
     1
  9
$SHADEDGE
 70
     3
  9
$SHADEDIF
 70
    70
  9
$TILEMODE
 70
     1
  9
$MAXACTVP
 70
    64
  9
$PINSBASE
 10
0.0
 20
0.0
 30
0.0
  9
$PLIMCHECK
 70
     0
  9
$PEXTMIN
 10
1.000000000000000E+20
 20
1.000000000000000E+20
 30
1.000000000000000E+20
  9
$PEXTMAX
 10
-1.000000000000000E+20
 20
-1.000000000000000E+20
 30
-1.000000000000000E+20
  9
$PLIMMIN
 10
0.0
 20
0.0
  9
$PLIMMAX
 10
12.0
 20
9.0
  9
$UNITMODE
 70
     0
  9
$VISRETAIN
 70
     1
  9
$PLINEGEN
 70
     0
  9
$PSLTSCALE
 70
     1
  9
$TREEDEPTH
 70
  3020
  9
$PICKSTYLE
 70
     1
  9
$CMLSTYLE
  2
STANDARD
  9
$CMLJUST
 70
     0
  9
$CMLSCALE
 40
1.0
  9
$PROXYGRAPHICS
 70
     1
  9
$MEASUREMENT
 70
     0
  0
ENDSEC
  0
SECTION
  2
CLASSES
  0
CLASS
  1
ACDBDICTIONARYWDFLT
  2
AcDbDictionaryWithDefault
  3
ObjectDBX Classes
 90
        0
280
     0
281
     0
  0
CLASS
  1
VISUALSTYLE
  2
AcDbVisualStyle
  3
ObjectDBX Classes
 90
     4095
280
     0
281
     0
  0
CLASS
  1
MATERIAL
  2
AcDbMaterial
  3
ObjectDBX Classes
 90
     1153
280
     0
281
     0
  0
CLASS
  1
DICTIONARYVAR
  2
AcDbDictionaryVar
  3
ObjectDBX Classes
 90
        0
280
     0
281
     0
  0
CLASS
  1
XRECORD
  2
AcDbXrecord
  3
AutoCAD 2000
 90
        0
280
     0
281
     0
  0
CLASS
  1
LWPOLYLINE
  2
AcDbPolyline
  3
AutoCAD 2000
 90
        0
280
     0
281
     1
  0
CLASS
  1
HATCH
  2
AcDbHatch
  3
AutoCAD 2000
 90
        0
280
     0
281
     1
  0
CLASS
  1
ACDBPLACEHOLDER
  2
AcDbPlaceHolder
  3
ObjectDBX Classes
 90
        0
280
     0
281
     0
  0
CLASS
  1
LAYOUT
  2
AcDbLayout
  3
ObjectDBX Classes
 90
        0
280
     0
281
     0
  0
ENDSEC
  0
SECTION
  2
TABLES
  0
TABLE
  2
VPORT
  5
8
330
0
100
AcDbSymbolTable
 70
     1
  0
VPORT
  5
29
330
8
100
AcDbSymbolTableRecord
100
AcDbViewportTableRecord
  2
*ACTIVE
 70
     0
 10
0.0
 20
0.0
 11
1.0
 21
1.0
 12
10.42990654205607
 22
4.5
 13
0.0
 23
0.0
 14
0.5
 24
0.5
 15
0.5
 25
0.5
 16
0.0
 26
0.0
 36
1.0
 17
0.0
 27
0.0
 37
0.0
 40
9.0
 41
1.972972972850329
 42
50.0
 43
0.0
 44
0.0
 50
0.0
 51
0.0
 71
     0
 72
   100
 73
     1
 74
     3
 75
     0
 76
     0
 77
     0
 78
     0
  0
ENDTAB
  0
TABLE
  2
LTYPE
  5
5
330
0
100
AcDbSymbolTable
 70
     1
  0
LTYPE
  5
14
330
5
100
AcDbSymbolTableRecord
100
AcDbLinetypeTableRecord
  2
BYBLOCK
 70
     0
  3

 72
    65
 73
     0
 40
0.0
  0
LTYPE
  5
15
330
5
100
AcDbSymbolTableRecord
100
AcDbLinetypeTableRecord
  2
BYLAYER
 70
     0
  3

 72
    65
 73
     0
 40
0.0
  0
LTYPE
  5
16
330
5
100
AcDbSymbolTableRecord
100
AcDbLinetypeTableRecord
  2
CONTINUOUS
 70
     0
  3
Solid line
 72
    65
 73
     0
 40
0.0
  0
ENDTAB
  0
TABLE
  2
LAYER
  5
2
330
0
100
AcDbSymbolTable
 70
     2
  0
LAYER
  5
10
330
2
100
AcDbSymbolTableRecord
100
AcDbLayerTableRecord
  2
0
 70
     0
 62
     7
  6
CONTINUOUS
  0
LAYER
  5
40
330
2
100
AcDbSymbolTableRecord
100
AcDbLayerTableRecord
  2
AXIS
 70
     0
 62
     7
  6
CONTINUOUS
  0
ENDTAB
  0
TABLE
  2
STYLE
  5
3
330
0
100
AcDbSymbolTable
 70
     1
  0
STYLE
  5
11
330
3
100
AcDbSymbolTableRecord
100
AcDbTextStyleTableRecord
  2
STANDARD
 70
     0
 40
0.0
 41
1.0
 50
0.0
 71
     0
 42
0.2
  3
txt
  4

  0
ENDTAB
  0
TABLE
  2
VIEW
  5
6
330
0
100
AcDbSymbolTable
 70
     0
  0
ENDTAB
  0
TABLE
  2
UCS
  5
7
330
0
100
AcDbSymbolTable
 70
     0
  0
ENDTAB
  0
TABLE
  2
APPID
  5
9
330
0
100
AcDbSymbolTable
 70
     2
  0
APPID
  5
12
330
9
100
AcDbSymbolTableRecord
100
AcDbRegAppTableRecord
  2
ACAD
 70
     0
  0
APPID
  5
3F
330
9
100
AcDbSymbolTableRecord
100
AcDbRegAppTableRecord
  2
ODA
 70
     0
  0
ENDTAB
  0
TABLE
  2
DIMSTYLE
  5
A
330
0
100
AcDbSymbolTable
 70
     1
  0
DIMSTYLE
105
27
330
A
100
AcDbSymbolTableRecord
100
AcDbDimStyleTableRecord
  2
STANDARD
 70
     0
  3

  4

  5

  6

  7

 40
1.0
 41
0.18
 42
0.0625
 43
0.38
 44
0.18
 45
0.0
 46
0.0
 47
0.0
 48
0.0
140
0.18
141
0.09
142
0.0
143
25.4
144
1.0
145
0.0
146
1.0
147
0.09
 71
     0
 72
     0
 73
     1
 74
     1
 75
     0
 76
     0
 77
     0
 78
     0
170
     0
171
     2
172
     0
173
     0
174
     0
175
     0
176
     0
177
     0
178
     0
270
     2
271
     4
272
     4
273
     2
274
     2
340
11
275
     0
280
     0
281
     0
282
     0
283
     1
284
     0
285
     0
286
     0
287
     3
288
     0
  0
ENDTAB
  0
TABLE
  2
BLOCK_RECORD
  5
1
330
0
100
AcDbSymbolTable
 70
     1
  0
BLOCK_RECORD
  5
1F
330
1
100
AcDbSymbolTableRecord
100
AcDbBlockTableRecord
  2
*MODEL_SPACE
  0
BLOCK_RECORD
  5
1B
330
1
100
AcDbSymbolTableRecord
100
AcDbBlockTableRecord
  2
*PAPER_SPACE
  0
ENDTAB
  0
ENDSEC
  0
SECTION
  2
BLOCKS
  0
BLOCK
  5
20
330
1F
100
AcDbEntity
  8
0
100
AcDbBlockBegin
  2
*MODEL_SPACE
 70
     0
 10
0.0
 20
0.0
 30
0.0
  3
*MODEL_SPACE
  1

  0
ENDBLK
  5
21
330
1F
100
AcDbEntity
  8
0
100
AcDbBlockEnd
  0
BLOCK
  5
1C
330
1B
100
AcDbEntity
 67
     1
  8
0
100
AcDbBlockBegin
  2
*PAPER_SPACE
 70
     0
 10
0.0
 20
0.0
 30
0.0
  3
*PAPER_SPACE
  1

  0
ENDBLK
  5
1D
330
1B
100
AcDbEntity
 67
     1
  8
0
100
AcDbBlockEnd
  0
ENDSEC
  0
SECTION
  2
ENTITIES
  0
SPLINE
  5
41
330
1F
100
AcDbEntity
  8
AXIS
 62
   250
100
AcDbSpline
210
0.0
220
0.0
230
1.0
 70
    11
 71
     3
 72
    20
 73
    16
 74
     0
 42
0.0000000001
 43
0.0000000001
 40
0.0
 40
0.0
 40
0.0
 40
0.0
 40
0.2
 40
0.2
 40
0.2
 40
0.2
 40
0.4
 40
0.4
 40
0.4
 40
0.4
 40
0.6
 40
0.6
 40
0.6
 40
0.6
 40
1.0
 40
1.0
 40
1.0
 40
1.0
 10
-29.9325
 20
-11.0056
 30
0.0
 10
-29.9325
 20
-11.0056
 30
0.0
 10
-30.3559
 20
-14.0058
 30
0.0
 10
-30.3559
 20
-14.0058
 30
0.0
 10
-30.3559
 20
-14.0058
 30
0.0
 10
-30.3559
 20
-14.0058
 30
0.0
 10
-30.4499
 20
-14.0058
 30
0.0
 10
-30.4499
 20
-14.0058
 30
0.0
 10
-30.4499
 20
-14.0058
 30
0.0
 10
-30.4499
 20
-14.0058
 30
0.0
 10
-30.9015
 20
-11.0056
 30
0.0
 10
-30.9015
 20
-11.0056
 30
0.0
 10
-30.9015
 20
-11.0056
 30
0.0
 10
-30.9015
 20
-11.0056
 30
0.0
 10
-29.9325
 20
-11.0056
 30
0.0
 10
-29.9325
 20
-11.0056
 30
0.0
  0
SPLINE
  5
42
330
1F
100
AcDbEntity
  8
AXIS
 62
   250
100
AcDbSpline
210
0.0
220
0.0
230
1.0
 70
    11
 71
     3
 72
    20
 73
    16
 74
     0
 42
0.0000000001
 43
0.0000000001
 40
0.0
 40
0.0
 40
0.0
 40
0.0
 40
0.2
 40
0.2
 40
0.2
 40
0.2
 40
0.4
 40
0.4
 40
0.4
 40
0.4
 40
0.6
 40
0.6
 40
0.6
 40
0.6
 40
1.0
 40
1.0
 40
1.0
 40
1.0
 10
-30.8567
 20
10.3132
 30
0.0
 10
-30.8567
 20
10.3132
 30
0.0
 10
-30.4333
 20
13.3135
 30
0.0
 10
-30.4333
 20
13.3135
 30
0.0
 10
-30.4333
 20
13.3135
 30
0.0
 10
-30.4333
 20
13.3135
 30
0.0
 10
-30.3392
 20
13.3135
 30
0.0
 10
-30.3392
 20
13.3135
 30
0.0
 10
-30.3392
 20
13.3135
 30
0.0
 10
-30.3392
 20
13.3135
 30
0.0
 10
-29.8877
 20
10.3132
 30
0.0
 10
-29.8877
 20
10.3132
 30
0.0
 10
-29.8877
 20
10.3132
 30
0.0
 10
-29.8877
 20
10.3132
 30
0.0
 10
-30.8567
 20
10.3132
 30
0.0
 10
-30.8567
 20
10.3132
 30
0.0
  0
SPLINE
  5
43
330
1F
100
AcDbEntity
  8
AXIS
 62
   250
100
AcDbSpline
210
0.0
220
0.0
230
1.0
 70
    11
 71
     3
 72
    20
 73
    16
 74
     0
 42
0.0000000001
 43
0.0000000001
 40
0.0
 40
0.0
 40
0.0
 40
0.0
 40
0.2
 40
0.2
 40
0.2
 40
0.2
 40
0.4
 40
0.4
 40
0.4
 40
0.4
 40
0.6
 40
0.6
 40
0.6
 40
0.6
 40
1.0
 40
1.0
 40
1.0
 40
1.0
 10
-4.9782
 20
-18.1213
 30
0.0
 10
-4.9782
 20
-18.1213
 30
0.0
 10
-1.9767
 20
-18.5449
 30
0.0
 10
-1.9767
 20
-18.5449
 30
0.0
 10
-1.9767
 20
-18.5449
 30
0.0
 10
-1.9767
 20
-18.5449
 30
0.0
 10
-1.9767
 20
-18.639
 30
0.0
 10
-1.9767
 20
-18.639
 30
0.0
 10
-1.9767
 20
-18.639
 30
0.0
 10
-1.9767
 20
-18.639
 30
0.0
 10
-4.9782
 20
-19.0908
 30
0.0
 10
-4.9782
 20
-19.0908
 30
0.0
 10
-4.9782
 20
-19.0908
 30
0.0
 10
-4.9782
 20
-19.0908
 30
0.0
 10
-4.9782
 20
-18.1213
 30
0.0
 10
-4.9782
 20
-18.1213
 30
0.0
  0
SPLINE
  5
44
330
1F
100
AcDbEntity
  8
AXIS
 62
   250
100
AcDbSpline
210
0.0
220
0.0
230
1.0
 70
    11
 71
     3
 72
    20
 73
    16
 74
     0
 42
0.0000000001
 43
0.0000000001
 40
0.0
 40
0.0
 40
0.0
 40
0.0
 40
0.2
 40
0.2
 40
0.2
 40
0.2
 40
0.4
 40
0.4
 40
0.4
 40
0.4
 40
0.6
 40
0.6
 40
0.6
 40
0.6
 40
1.0
 40
1.0
 40
1.0
 40
1.0
 10
12.6474
 20
-18.0823
 30
0.0
 10
12.6474
 20
-18.0823
 30
0.0
 10
15.6489
 20
-18.5059
 30
0.0
 10
15.6489
 20
-18.5059
 30
0.0
 10
15.6489
 20
-18.5059
 30
0.0
 10
15.6489
 20
-18.5059
 30
0.0
 10
15.6489
 20
-18.6
 30
0.0
 10
15.6489
 20
-18.6
 30
0.0
 10
15.6489
 20
-18.6
 30
0.0
 10
15.6489
 20
-18.6
 30
0.0
 10
12.6474
 20
-19.0518
 30
0.0
 10
12.6474
 20
-19.0518
 30
0.0
 10
12.6474
 20
-19.0518
 30
0.0
 10
12.6474
 20
-19.0518
 30
0.0
 10
12.6474
 20
-18.0823
 30
0.0
 10
12.6474
 20
-18.0823
 30
0.0
  0
SPLINE
  5
45
330
1F
100
AcDbEntity
  8
AXIS
 62
   250
100
AcDbSpline
210
0.0
220
0.0
230
1.0
 70
    11
 71
     3
 72
    20
 73
    16
 74
     0
 42
0.0000000001
 43
0.0000000001
 40
0.0
 40
0.0
 40
0.0
 40
0.0
 40
0.2
 40
0.2
 40
0.2
 40
0.2
 40
0.4
 40
0.4
 40
0.4
 40
0.4
 40
0.6
 40
0.6
 40
0.6
 40
0.6
 40
1.0
 40
1.0
 40
1.0
 40
1.0
 10
-22.1982
 20
-19.0396
 30
0.0
 10
-22.1982
 20
-19.0396
 30
0.0
 10
-25.1988
 20
-18.6161
 30
0.0
 10
-25.1988
 20
-18.6161
 30
0.0
 10
-25.1988
 20
-18.6161
 30
0.0
 10
-25.1988
 20
-18.6161
 30
0.0
 10
-25.1988
 20
-18.5221
 30
0.0
 10
-25.1988
 20
-18.5221
 30
0.0
 10
-25.1988
 20
-18.5221
 30
0.0
 10
-25.1988
 20
-18.5221
 30
0.0
 10
-22.1982
 20
-18.0704
 30
0.0
 10
-22.1982
 20
-18.0704
 30
0.0
 10
-22.1982
 20
-18.0704
 30
0.0
 10
-22.1982
 20
-18.0704
 30
0.0
 10
-22.1982
 20
-19.0396
 30
0.0
 10
-22.1982
 20
-19.0396
 30
0.0
  0
SPLINE
  5
46
330
1F
100
AcDbEntity
  8
AXIS
 62
   250
100
AcDbSpline
210
0.0
220
0.0
230
1.0
 70
    11
 71
     3
 72
    20
 73
    16
 74
     0
 42
0.0000000001
 43
0.0000000001
 40
0.0
 40
0.0
 40
0.0
 40
0.0
 40
0.2
 40
0.2
 40
0.2
 40
0.2
 40
0.4
 40
0.4
 40
0.4
 40
0.4
 40
0.6
 40
0.6
 40
0.6
 40
0.6
 40
1.0
 40
1.0
 40
1.0
 40
1.0
 10
1.4136
 20
-19.0502
 30
0.0
 10
1.4136
 20
-19.0502
 30
0.0
 10
-1.587
 20
-18.6267
 30
0.0
 10
-1.587
 20
-18.6267
 30
0.0
 10
-1.587
 20
-18.6267
 30
0.0
 10
-1.587
 20
-18.6267
 30
0.0
 10
-1.587
 20
-18.5327
 30
0.0
 10
-1.587
 20
-18.5327
 30
0.0
 10
-1.587
 20
-18.5327
 30
0.0
 10
-1.587
 20
-18.5327
 30
0.0
 10
1.4136
 20
-18.081
 30
0.0
 10
1.4136
 20
-18.081
 30
0.0
 10
1.4136
 20
-18.081
 30
0.0
 10
1.4136
 20
-18.081
 30
0.0
 10
1.4136
 20
-19.0502
 30
0.0
 10
1.4136
 20
-19.0502
 30
0.0
  0
SPLINE
  5
47
330
1F
100
AcDbEntity
  8
AXIS
 62
   250
100
AcDbSpline
210
0.0
220
0.0
230
1.0
 70
    11
 71
     3
 72
    20
 73
    16
 74
     0
 42
0.0000000001
 43
0.0000000001
 40
0.0
 40
0.0
 40
0.0
 40
0.0
 40
0.2
 40
0.2
 40
0.2
 40
0.2
 40
0.4
 40
0.4
 40
0.4
 40
0.4
 40
0.6
 40
0.6
 40
0.6
 40
0.6
 40
1.0
 40
1.0
 40
1.0
 40
1.0
 10
12.747
 20
17.239
 30
0.0
 10
12.747
 20
17.239
 30
0.0
 10
15.75
 20
16.8152
 30
0.0
 10
15.75
 20
16.8152
 30
0.0
 10
15.75
 20
16.8152
 30
0.0
 10
15.75
 20
16.8152
 30
0.0
 10
15.75
 20
16.7211
 30
0.0
 10
15.75
 20
16.7211
 30
0.0
 10
15.75
 20
16.7211
 30
0.0
 10
15.75
 20
16.7211
 30
0.0
 10
12.747
 20
16.2691
 30
0.0
 10
12.747
 20
16.2691
 30
0.0
 10
12.747
 20
16.2691
 30
0.0
 10
12.747
 20
16.2691
 30
0.0
 10
12.747
 20
17.239
 30
0.0
 10
12.747
 20
17.239
 30
0.0
  0
SPLINE
  5
48
330
1F
100
AcDbEntity
  8
AXIS
 62
   250
100
AcDbSpline
210
0.0
220
0.0
230
1.0
 70
    11
 71
     3
 72
    20
 73
    16
 74
     0
 42
0.0000000001
 43
0.0000000001
 40
0.0
 40
0.0
 40
0.0
 40
0.0
 40
0.2
 40
0.2
 40
0.2
 40
0.2
 40
0.4
 40
0.4
 40
0.4
 40
0.4
 40
0.6
 40
0.6
 40
0.6
 40
0.6
 40
1.0
 40
1.0
 40
1.0
 40
1.0
 10
-22.2209
 20
16.2911
 30
0.0
 10
-22.2209
 20
16.2911
 30
0.0
 10
-25.2209
 20
16.7144
 30
0.0
 10
-25.2209
 20
16.7144
 30
0.0
 10
-25.2209
 20
16.7144
 30
0.0
 10
-25.2209
 20
16.7144
 30
0.0
 10
-25.2209
 20
16.8085
 30
0.0
 10
-25.2209
 20
16.8085
 30
0.0
 10
-25.2209
 20
16.8085
 30
0.0
 10
-25.2209
 20
16.8085
 30
0.0
 10
-22.2209
 20
17.26
 30
0.0
 10
-22.2209
 20
17.26
 30
0.0
 10
-22.2209
 20
17.26
 30
0.0
 10
-22.2209
 20
17.26
 30
0.0
 10
-22.2209
 20
16.2911
 30
0.0
 10
-22.2209
 20
16.2911
 30
0.0
  0
SPLINE
  5
49
330
1F
100
AcDbEntity
  8
AXIS
 62
   250
100
AcDbSpline
210
0.0
220
0.0
230
1.0
 70
    11
 71
     3
 72
    20
 73
    16
 74
     0
 42
0.0000000001
 43
0.0000000001
 40
0.0
 40
0.0
 40
0.0
 40
0.0
 40
0.2
 40
0.2
 40
0.2
 40
0.2
 40
0.4
 40
0.4
 40
0.4
 40
0.4
 40
0.6
 40
0.6
 40
0.6
 40
0.6
 40
1.0
 40
1.0
 40
1.0
 40
1.0
 10
20.5526
 20
16.3705
 30
0.0
 10
20.5526
 20
16.3705
 30
0.0
 10
23.5543
 20
15.9469
 30
0.0
 10
23.5543
 20
15.9469
 30
0.0
 10
23.5543
 20
15.9469
 30
0.0
 10
23.5543
 20
15.9469
 30
0.0
 10
23.5543
 20
15.8528
 30
0.0
 10
23.5543
 20
15.8528
 30
0.0
 10
23.5543
 20
15.8528
 30
0.0
 10
23.5543
 20
15.8528
 30
0.0
 10
20.5526
 20
15.401
 30
0.0
 10
20.5526
 20
15.401
 30
0.0
 10
20.5526
 20
15.401
 30
0.0
 10
20.5526
 20
15.401
 30
0.0
 10
20.5526
 20
16.3705
 30
0.0
 10
20.5526
 20
16.3705
 30
0.0
  0
SPLINE
  5
4A
330
1F
100
AcDbEntity
  8
AXIS
 62
   250
100
AcDbSpline
210
0.0
220
0.0
230
1.0
 70
    11
 71
     3
 72
    20
 73
    16
 74
     0
 42
0.0000000001
 43
0.0000000001
 40
0.0
 40
0.0
 40
0.0
 40
0.0
 40
0.2
 40
0.2
 40
0.2
 40
0.2
 40
0.4
 40
0.4
 40
0.4
 40
0.4
 40
0.6
 40
0.6
 40
0.6
 40
0.6
 40
1.0
 40
1.0
 40
1.0
 40
1.0
 10
27.7116
 20
15.4126
 30
0.0
 10
27.7116
 20
15.4126
 30
0.0
 10
24.7094
 20
15.8362
 30
0.0
 10
24.7094
 20
15.8362
 30
0.0
 10
24.7094
 20
15.8362
 30
0.0
 10
24.7094
 20
15.8362
 30
0.0
 10
24.7094
 20
15.9303
 30
0.0
 10
24.7094
 20
15.9303
 30
0.0
 10
24.7094
 20
15.9303
 30
0.0
 10
24.7094
 20
15.9303
 30
0.0
 10
27.7116
 20
16.3822
 30
0.0
 10
27.7116
 20
16.3822
 30
0.0
 10
27.7116
 20
16.3822
 30
0.0
 10
27.7116
 20
16.3822
 30
0.0
 10
27.7116
 20
15.4126
 30
0.0
 10
27.7116
 20
15.4126
 30
0.0
  0
SPLINE
  5
4B
330
1F
100
AcDbEntity
  8
AXIS
 62
   250
100
AcDbSpline
210
0.0
220
0.0
230
1.0
 70
    24
 71
     3
 72
     8
 73
     4
 74
     0
 42
0.0000000001
 43
0.0000000001
 40
0.0
 40
0.0
 40
0.0
 40
0.0
 40
1.0
 40
1.0
 40
1.0
 40
1.0
 10
-25.4922
 20
-14.0585
 30
0.0
 10
-25.4922
 20
-14.0585
 30
0.0
 10
-30.6423
 20
-14.0585
 30
0.0
 10
-30.6423
 20
-14.0585
 30
0.0
  0
SPLINE
  5
4C
330
1F
100
AcDbEntity
  8
AXIS
 62
   250
100
AcDbSpline
210
0.0
220
0.0
230
1.0
 70
    24
 71
     3
 72
     8
 73
     4
 74
     0
 42
0.0000000001
 43
0.0000000001
 40
0.0
 40
0.0
 40
0.0
 40
0.0
 40
1.0
 40
1.0
 40
1.0
 40
1.0
 10
-25.5587
 20
13.4127
 30
0.0
 10
-25.5587
 20
13.4127
 30
0.0
 10
-30.6423
 20
13.4127
 30
0.0
 10
-30.6423
 20
13.4127
 30
0.0
  0
SPLINE
  5
4D
330
1F
100
AcDbEntity
  8
AXIS
 62
   250
100
AcDbSpline
210
0.0
220
0.0
230
1.0
 70
    24
 71
     3
 72
     8
 73
     4
 74
     0
 42
0.0000000001
 43
0.0000000001
 40
0.0
 40
0.0
 40
0.0
 40
0.0
 40
1.0
 40
1.0
 40
1.0
 40
1.0
 10
-30.4045
 20
13.4127
 30
0.0
 10
-30.4045
 20
13.4127
 30
0.0
 10
-30.4045
 20
-13.6318
 30
0.0
 10
-30.4045
 20
-13.6318
 30
0.0
  0
SPLINE
  5
4E
330
1F
100
AcDbEntity
  8
AXIS
 62
   250
100
AcDbSpline
210
0.0
220
0.0
230
1.0
 70
    24
 71
     3
 72
     8
 73
     4
 74
     0
 42
0.0000000001
 43
0.0000000001
 40
0.0
 40
0.0
 40
0.0
 40
0.0
 40
1.0
 40
1.0
 40
1.0
 40
1.0
 10
-25.2431
 20
-14.4348
 30
0.0
 10
-25.2431
 20
-14.4348
 30
0.0
 10
-25.2431
 20
-19.1973
 30
0.0
 10
-25.2431
 20
-19.1973
 30
0.0
  0
SPLINE
  5
4F
330
1F
100
AcDbEntity
  8
AXIS
 62
   250
100
AcDbSpline
210
0.0
220
0.0
230
1.0
 70
    24
 71
     3
 72
     8
 73
     4
 74
     0
 42
0.0000000001
 43
0.0000000001
 40
0.0
 40
0.0
 40
0.0
 40
0.0
 40
1.0
 40
1.0
 40
1.0
 40
1.0
 10
15.6783
 20
-14.2553
 30
0.0
 10
15.6783
 20
-14.2553
 30
0.0
 10
15.6783
 20
-19.0178
 30
0.0
 10
15.6783
 20
-19.0178
 30
0.0
  0
SPLINE
  5
50
330
1F
100
AcDbEntity
  8
AXIS
 62
   250
100
AcDbSpline
210
0.0
220
0.0
230
1.0
 70
    24
 71
     3
 72
     8
 73
     4
 74
     0
 42
0.0000000001
 43
0.0000000001
 40
0.0
 40
0.0
 40
0.0
 40
0.0
 40
1.0
 40
1.0
 40
1.0
 40
1.0
 10
-1.8312
 20
-14.4134
 30
0.0
 10
-1.8312
 20
-14.4134
 30
0.0
 10
-1.8312
 20
-19.1289
 30
0.0
 10
-1.8312
 20
-19.1289
 30
0.0
  0
SPLINE
  5
51
330
1F
100
AcDbEntity
  8
AXIS
 62
   250
100
AcDbSpline
210
0.0
220
0.0
230
1.0
 70
    24
 71
     3
 72
     8
 73
     4
 74
     0
 42
0.0000000001
 43
0.0000000001
 40
0.0
 40
0.0
 40
0.0
 40
0.0
 40
1.0
 40
1.0
 40
1.0
 40
1.0
 10
-2.0452
 20
-18.5784
 30
0.0
 10
-2.0452
 20
-18.5784
 30
0.0
 10
-25.1307
 20
-18.5784
 30
0.0
 10
-25.1307
 20
-18.5784
 30
0.0
  0
SPLINE
  5
52
330
1F
100
AcDbEntity
  8
AXIS
 62
   250
100
AcDbSpline
210
0.0
220
0.0
230
1.0
 70
    24
 71
     3
 72
     8
 73
     4
 74
     0
 42
0.0000000001
 43
0.0000000001
 40
0.0
 40
0.0
 40
0.0
 40
0.0
 40
1.0
 40
1.0
 40
1.0
 40
1.0
 10
15.821
 20
14.1996
 30
0.0
 10
15.821
 20
14.1996
 30
0.0
 10
15.821
 20
17.0117
 30
0.0
 10
15.821
 20
17.0117
 30
0.0
  0
SPLINE
  5
53
330
1F
100
AcDbEntity
  8
AXIS
 62
   250
100
AcDbSpline
210
0.0
220
0.0
230
1.0
 70
    24
 71
     3
 72
     8
 73
     4
 74
     0
 42
0.0000000001
 43
0.0000000001
 40
0.0
 40
0.0
 40
0.0
 40
0.0
 40
1.0
 40
1.0
 40
1.0
 40
1.0
 10
-25.3024
 20
14.1947
 30
0.0
 10
-25.3024
 20
14.1947
 30
0.0
 10
-25.3024
 20
17.0117
 30
0.0
 10
-25.3024
 20
17.0117
 30
0.0
  0
SPLINE
  5
54
330
1F
100
AcDbEntity
  8
AXIS
 62
   250
100
AcDbSpline
210
0.0
220
0.0
230
1.0
 70
    24
 71
     3
 72
     8
 73
     4
 74
     0
 42
0.0000000001
 43
0.0000000001
 40
0.0
 40
0.0
 40
0.0
 40
0.0
 40
1.0
 40
1.0
 40
1.0
 40
1.0
 10
15.821
 20
16.7738
 30
0.0
 10
15.821
 20
16.7738
 30
0.0
 10
-24.9091
 20
16.7738
 30
0.0
 10
-24.9091
 20
16.7738
 30
0.0
  0
SPLINE
  5
55
330
1F
100
AcDbEntity
  8
AXIS
 62
   250
100
AcDbSpline
210
0.0
220
0.0
230
1.0
 70
    24
 71
     3
 72
     8
 73
     4
 74
     0
 42
0.0000000001
 43
0.0000000001
 40
0.0
 40
0.0
 40
0.0
 40
0.0
 40
1.0
 40
1.0
 40
1.0
 40
1.0
 10
23.6103
 20
16.2407
 30
0.0
 10
23.6103
 20
16.2407
 30
0.0
 10
23.6103
 20
13.669
 30
0.0
 10
23.6103
 20
13.669
 30
0.0
  0
SPLINE
  5
56
330
1F
100
AcDbEntity
  8
AXIS
 62
   250
100
AcDbSpline
210
0.0
220
0.0
230
1.0
 70
    24
 71
     3
 72
     8
 73
     4
 74
     0
 42
0.0000000001
 43
0.0000000001
 40
0.0
 40
0.0
 40
0.0
 40
0.0
 40
1.0
 40
1.0
 40
1.0
 40
1.0
 10
24.6138
 20
16.1744
 30
0.0
 10
24.6138
 20
16.1744
 30
0.0
 10
24.6138
 20
13.5201
 30
0.0
 10
24.6138
 20
13.5201
 30
0.0
  0
SPLINE
  5
57
330
1F
100
AcDbEntity
  8
AXIS
 62
   250
100
AcDbSpline
210
0.0
220
0.0
230
1.0
 70
    24
 71
     3
 72
     8
 73
     4
 74
     0
 42
0.0000000001
 43
0.0000000001
 40
0.0
 40
0.0
 40
0.0
 40
0.0
 40
1.0
 40
1.0
 40
1.0
 40
1.0
 10
28.6419
 20
15.8748
 30
0.0
 10
28.6419
 20
15.8748
 30
0.0
 10
19.2822
 20
15.8748
 30
0.0
 10
19.2822
 20
15.8748
 30
0.0
  0
SPLINE
  5
58
330
1F
100
AcDbEntity
  8
AXIS
 62
   250
100
AcDbSpline
210
0.0
220
0.0
230
1.0
 70
    11
 71
     3
 72
    92
 73
    88
 74
     0
 42
0.0000000001
 43
0.0000000001
 40
0.0
 40
0.0
 40
0.0
 40
0.0
 40
0.0434782608695652
 40
0.0434782608695652
 40
0.0434782608695652
 40
0.0434782608695652
 40
0.0869565217391304
 40
0.0869565217391304
 40
0.0869565217391304
 40
0.0869565217391304
 40
0.1304347826086956
 40
0.1304347826086956
 40
0.1304347826086956
 40
0.1304347826086956
 40
0.1739130434782609
 40
0.1739130434782609
 40
0.1739130434782609
 40
0.1739130434782609
 40
0.2173913043478261
 40
0.2173913043478261
 40
0.2173913043478261
 40
0.2173913043478261
 40
0.2608695652173913
 40
0.2608695652173913
 40
0.2608695652173913
 40
0.2608695652173913
 40
0.3043478260869565
 40
0.3043478260869565
 40
0.3043478260869565
 40
0.3043478260869565
 40
0.3478260869565217
 40
0.3478260869565217
 40
0.3478260869565217
 40
0.3478260869565217
 40
0.391304347826087
 40
0.391304347826087
 40
0.391304347826087
 40
0.391304347826087
 40
0.4347826086956522
 40
0.4347826086956522
 40
0.4347826086956522
 40
0.4347826086956522
 40
0.4782608695652174
 40
0.4782608695652174
 40
0.4782608695652174
 40
0.4782608695652174
 40
0.5217391304347826
 40
0.5217391304347826
 40
0.5217391304347826
 40
0.5217391304347826
 40
0.5652173913043478
 40
0.5652173913043478
 40
0.5652173913043478
 40
0.5652173913043478
 40
0.6086956521739131
 40
0.6086956521739131
 40
0.6086956521739131
 40
0.6086956521739131
 40
0.6521739130434783
 40
0.6521739130434783
 40
0.6521739130434783
 40
0.6521739130434783
 40
0.6956521739130435
 40
0.6956521739130435
 40
0.6956521739130435
 40
0.6956521739130435
 40
0.7391304347826086
 40
0.7391304347826086
 40
0.7391304347826086
 40
0.7391304347826086
 40
0.782608695652174
 40
0.782608695652174
 40
0.782608695652174
 40
0.782608695652174
 40
0.8260869565217391
 40
0.8260869565217391
 40
0.8260869565217391
 40
0.8260869565217391
 40
0.8695652173913043
 40
0.8695652173913043
 40
0.8695652173913043
 40
0.8695652173913043
 40
0.9130434782608695
 40
0.9130434782608695
 40
0.9130434782608695
 40
0.9130434782608695
 40
1.0
 40
1.0
 40
1.0
 40
1.0
 10
23.5416
 20
17.1691
 30
0.0
 10
23.5416
 20
17.1691
 30
0.0
 10
23.8022
 20
17.1912
 30
0.0
 10
23.8022
 20
17.1912
 30
0.0
 10
23.8022
 20
17.1912
 30
0.0
 10
23.8215
 20
17.0642
 30
0.0
 10
23.8662
 20
16.9692
 30
0.0
 10
23.9363
 20
16.9052
 30
0.0
 10
23.9363
 20
16.9052
 30
0.0
 10
24.0068
 20
16.8412
 30
0.0
 10
24.0915
 20
16.8092
 30
0.0
 10
24.1907
 20
16.8092
 30
0.0
 10
24.1907
 20
16.8092
 30
0.0
 10
24.3102
 20
16.8092
 30
0.0
 10
24.4113
 20
16.8544
 30
0.0
 10
24.4936
 20
16.9442
 30
0.0
 10
24.4936
 20
16.9442
 30
0.0
 10
24.5764
 20
17.0345
 30
0.0
 10
24.6178
 20
17.154
 30
0.0
 10
24.6178
 20
17.3026
 30
0.0
 10
24.6178
 20
17.3026
 30
0.0
 10
24.6178
 20
17.4442
 30
0.0
 10
24.5783
 20
17.5557
 30
0.0
 10
24.4988
 20
17.6375
 30
0.0
 10
24.4988
 20
17.6375
 30
0.0
 10
24.4193
 20
17.7194
 30
0.0
 10
24.3154
 20
17.7603
 30
0.0
 10
24.1865
 20
17.7603
 30
0.0
 10
24.1865
 20
17.7603
 30
0.0
 10
24.1065
 20
17.7603
 30
0.0
 10
24.0346
 20
17.742
 30
0.0
 10
23.9701
 20
17.7058
 30
0.0
 10
23.9701
 20
17.7058
 30
0.0
 10
23.9057
 20
17.6695
 30
0.0
 10
23.8554
 20
17.6225
 30
0.0
 10
23.8187
 20
17.5646
 30
0.0
 10
23.8187
 20
17.5646
 30
0.0
 10
23.8187
 20
17.5646
 30
0.0
 10
23.5858
 20
17.5947
 30
0.0
 10
23.5858
 20
17.5947
 30
0.0
 10
23.5858
 20
17.5947
 30
0.0
 10
23.5858
 20
17.5947
 30
0.0
 10
23.7815
 20
18.6324
 30
0.0
 10
23.7815
 20
18.6324
 30
0.0
 10
23.7815
 20
18.6324
 30
0.0
 10
23.7815
 20
18.6324
 30
0.0
 10
24.7862
 20
18.6324
 30
0.0
 10
24.7862
 20
18.6324
 30
0.0
 10
24.7862
 20
18.6324
 30
0.0
 10
24.7862
 20
18.6324
 30
0.0
 10
24.7862
 20
18.3953
 30
0.0
 10
24.7862
 20
18.3953
 30
0.0
 10
24.7862
 20
18.3953
 30
0.0
 10
24.7862
 20
18.3953
 30
0.0
 10
23.98
 20
18.3953
 30
0.0
 10
23.98
 20
18.3953
 30
0.0
 10
23.98
 20
18.3953
 30
0.0
 10
23.98
 20
18.3953
 30
0.0
 10
23.8709
 20
17.8525
 30
0.0
 10
23.8709
 20
17.8525
 30
0.0
 10
23.8709
 20
17.8525
 30
0.0
 10
23.9922
 20
17.9372
 30
0.0
 10
24.1197
 20
17.9795
 30
0.0
 10
24.2528
 20
17.9795
 30
0.0
 10
24.2528
 20
17.9795
 30
0.0
 10
24.4292
 20
17.9795
 30
0.0
 10
24.5778
 20
17.9184
 30
0.0
 10
24.6992
 20
17.7961
 30
0.0
 10
24.6992
 20
17.7961
 30
0.0
 10
24.8205
 20
17.6738
 30
0.0
 10
24.8812
 20
17.5167
 30
0.0
 10
24.8812
 20
17.3248
 30
0.0
 10
24.8812
 20
17.3248
 30
0.0
 10
24.8812
 20
17.1418
 30
0.0
 10
24.8276
 20
16.9837
 30
0.0
 10
24.7213
 20
16.8506
 30
0.0
 10
24.7213
 20
16.8506
 30
0.0
 10
24.5915
 20
16.6874
 30
0.0
 10
24.4146
 20
16.6056
 30
0.0
 10
24.1907
 20
16.6056
 30
0.0
 10
24.1907
 20
16.6056
 30
0.0
 10
24.0068
 20
16.6056
 30
0.0
 10
23.8568
 20
16.6568
 30
0.0
 10
23.7406
 20
16.7598
 30
0.0
 10
23.7406
 20
16.7598
 30
0.0
 10
23.6244
 20
16.8629
 30
0.0
 10
23.5581
 20
16.9993
 30
0.0
 10
23.5416
 20
17.1691
 30
0.0
  0
SPLINE
  5
59
330
1F
100
AcDbEntity
  8
AXIS
 62
   250
100
AcDbSpline
210
0.0
220
0.0
230
1.0
 70
    11
 71
     3
 72
    20
 73
    16
 74
     0
 42
0.0000000001
 43
0.0000000001
 40
0.0
 40
0.0
 40
0.0
 40
0.0
 40
0.2
 40
0.2
 40
0.2
 40
0.2
 40
0.4
 40
0.4
 40
0.4
 40
0.4
 40
0.6
 40
0.6
 40
0.6
 40
0.6
 40
1.0
 40
1.0
 40
1.0
 40
1.0
 10
25.2796
 20
-12.223
 30
0.0
 10
25.2796
 20
-12.223
 30
0.0
 10
28.2813
 20
-12.6466
 30
0.0
 10
28.2813
 20
-12.6466
 30
0.0
 10
28.2813
 20
-12.6466
 30
0.0
 10
28.2813
 20
-12.6466
 30
0.0
 10
28.2813
 20
-12.7407
 30
0.0
 10
28.2813
 20
-12.7407
 30
0.0
 10
28.2813
 20
-12.7407
 30
0.0
 10
28.2813
 20
-12.7407
 30
0.0
 10
25.2796
 20
-13.1925
 30
0.0
 10
25.2796
 20
-13.1925
 30
0.0
 10
25.2796
 20
-13.1925
 30
0.0
 10
25.2796
 20
-13.1925
 30
0.0
 10
25.2796
 20
-12.223
 30
0.0
 10
25.2796
 20
-12.223
 30
0.0
  0
SPLINE
  5
5A
330
1F
100
AcDbEntity
  8
AXIS
 62
   250
100
AcDbSpline
210
0.0
220
0.0
230
1.0
 70
    11
 71
     3
 72
    20
 73
    16
 74
     0
 42
0.0000000001
 43
0.0000000001
 40
0.0
 40
0.0
 40
0.0
 40
0.0
 40
0.2
 40
0.2
 40
0.2
 40
0.2
 40
0.4
 40
0.4
 40
0.4
 40
0.4
 40
0.6
 40
0.6
 40
0.6
 40
0.6
 40
1.0
 40
1.0
 40
1.0
 40
1.0
 10
31.678
 20
-13.1562
 30
0.0
 10
31.678
 20
-13.1562
 30
0.0
 10
28.6758
 20
-12.7326
 30
0.0
 10
28.6758
 20
-12.7326
 30
0.0
 10
28.6758
 20
-12.7326
 30
0.0
 10
28.6758
 20
-12.7326
 30
0.0
 10
28.6758
 20
-12.6385
 30
0.0
 10
28.6758
 20
-12.6385
 30
0.0
 10
28.6758
 20
-12.6385
 30
0.0
 10
28.6758
 20
-12.6385
 30
0.0
 10
31.678
 20
-12.1866
 30
0.0
 10
31.678
 20
-12.1866
 30
0.0
 10
31.678
 20
-12.1866
 30
0.0
 10
31.678
 20
-12.1866
 30
0.0
 10
31.678
 20
-13.1562
 30
0.0
 10
31.678
 20
-13.1562
 30
0.0
  0
SPLINE
  5
5B
330
1F
100
AcDbEntity
  8
AXIS
 62
   250
100
AcDbSpline
210
0.0
220
0.0
230
1.0
 70
    24
 71
     3
 72
     8
 73
     4
 74
     0
 42
0.0000000001
 43
0.0000000001
 40
0.0
 40
0.0
 40
0.0
 40
0.0
 40
1.0
 40
1.0
 40
1.0
 40
1.0
 10
32.2825
 20
-12.6857
 30
0.0
 10
32.2825
 20
-12.6857
 30
0.0
 10
24.9182
 20
-12.6857
 30
0.0
 10
24.9182
 20
-12.6857
 30
0.0
  0
SPLINE
  5
5C
330
1F
100
AcDbEntity
  8
AXIS
 62
   250
100
AcDbSpline
210
0.0
220
0.0
230
1.0
 70
    11
 71
     3
 72
    92
 73
    88
 74
     0
 42
0.0000000001
 43
0.0000000001
 40
0.0
 40
0.0
 40
0.0
 40
0.0
 40
0.0434782608695652
 40
0.0434782608695652
 40
0.0434782608695652
 40
0.0434782608695652
 40
0.0869565217391304
 40
0.0869565217391304
 40
0.0869565217391304
 40
0.0869565217391304
 40
0.1304347826086956
 40
0.1304347826086956
 40
0.1304347826086956
 40
0.1304347826086956
 40
0.1739130434782609
 40
0.1739130434782609
 40
0.1739130434782609
 40
0.1739130434782609
 40
0.2173913043478261
 40
0.2173913043478261
 40
0.2173913043478261
 40
0.2173913043478261
 40
0.2608695652173913
 40
0.2608695652173913
 40
0.2608695652173913
 40
0.2608695652173913
 40
0.3043478260869565
 40
0.3043478260869565
 40
0.3043478260869565
 40
0.3043478260869565
 40
0.3478260869565217
 40
0.3478260869565217
 40
0.3478260869565217
 40
0.3478260869565217
 40
0.391304347826087
 40
0.391304347826087
 40
0.391304347826087
 40
0.391304347826087
 40
0.4347826086956522
 40
0.4347826086956522
 40
0.4347826086956522
 40
0.4347826086956522
 40
0.4782608695652174
 40
0.4782608695652174
 40
0.4782608695652174
 40
0.4782608695652174
 40
0.5217391304347826
 40
0.5217391304347826
 40
0.5217391304347826
 40
0.5217391304347826
 40
0.5652173913043478
 40
0.5652173913043478
 40
0.5652173913043478
 40
0.5652173913043478
 40
0.6086956521739131
 40
0.6086956521739131
 40
0.6086956521739131
 40
0.6086956521739131
 40
0.6521739130434783
 40
0.6521739130434783
 40
0.6521739130434783
 40
0.6521739130434783
 40
0.6956521739130435
 40
0.6956521739130435
 40
0.6956521739130435
 40
0.6956521739130435
 40
0.7391304347826086
 40
0.7391304347826086
 40
0.7391304347826086
 40
0.7391304347826086
 40
0.782608695652174
 40
0.782608695652174
 40
0.782608695652174
 40
0.782608695652174
 40
0.8260869565217391
 40
0.8260869565217391
 40
0.8260869565217391
 40
0.8260869565217391
 40
0.8695652173913043
 40
0.8695652173913043
 40
0.8695652173913043
 40
0.8695652173913043
 40
0.9130434782608695
 40
0.9130434782608695
 40
0.9130434782608695
 40
0.9130434782608695
 40
1.0
 40
1.0
 40
1.0
 40
1.0
 10
26.9347
 20
-11.4561
 30
0.0
 10
26.9347
 20
-11.4561
 30
0.0
 10
26.9347
 20
-11.6946
 30
0.0
 10
26.9347
 20
-11.6946
 30
0.0
 10
26.9347
 20
-11.6946
 30
0.0
 10
26.9347
 20
-11.6946
 30
0.0
 10
25.5993
 20
-11.6946
 30
0.0
 10
25.5993
 20
-11.6946
 30
0.0
 10
25.5993
 20
-11.6946
 30
0.0
 10
25.5974
 20
-11.6349
 30
0.0
 10
25.6068
 20
-11.5775
 30
0.0
 10
25.628
 20
-11.5224
 30
0.0
 10
25.628
 20
-11.5224
 30
0.0
 10
25.6619
 20
-11.4312
 30
0.0
 10
25.7164
 20
-11.3418
 30
0.0
 10
25.7912
 20
-11.2534
 30
0.0
 10
25.7912
 20
-11.2534
 30
0.0
 10
25.8665
 20
-11.1654
 30
0.0
 10
25.9747
 20
-11.0634
 30
0.0
 10
26.1158
 20
-10.9477
 30
0.0
 10
26.1158
 20
-10.9477
 30
0.0
 10
26.3354
 20
-10.7675
 30
0.0
 10
26.4841
 20
-10.625
 30
0.0
 10
26.5612
 20
-10.5196
 30
0.0
 10
26.5612
 20
-10.5196
 30
0.0
 10
26.6383
 20
-10.4147
 30
0.0
 10
26.6769
 20
-10.315
 30
0.0
 10
26.6769
 20
-10.2214
 30
0.0
 10
26.6769
 20
-10.2214
 30
0.0
 10
26.6769
 20
-10.1231
 30
0.0
 10
26.6416
 20
-10.0403
 30
0.0
 10
26.5716
 20
-9.9726
 30
0.0
 10
26.5716
 20
-9.9726
 30
0.0
 10
26.501
 20
-9.9053
 30
0.0
 10
26.4093
 20
-9.8715
 30
0.0
 10
26.2964
 20
-9.8715
 30
0.0
 10
26.2964
 20
-9.8715
 30
0.0
 10
26.1769
 20
-9.8715
 30
0.0
 10
26.0814
 20
-9.9072
 30
0.0
 10
26.0099
 20
-9.9792
 30
0.0
 10
26.0099
 20
-9.9792
 30
0.0
 10
25.938
 20
-10.0507
 30
0.0
 10
25.9018
 20
-10.1499
 30
0.0
 10
25.9008
 20
-10.2764
 30
0.0
 10
25.9008
 20
-10.2764
 30
0.0
 10
25.9008
 20
-10.2764
 30
0.0
 10
25.6459
 20
-10.2506
 30
0.0
 10
25.6459
 20
-10.2506
 30
0.0
 10
25.6459
 20
-10.2506
 30
0.0
 10
25.6633
 20
-10.0601
 30
0.0
 10
25.7291
 20
-9.9152
 30
0.0
 10
25.843
 20
-9.8155
 30
0.0
 10
25.843
 20
-9.8155
 30
0.0
 10
25.9568
 20
-9.7158
 30
0.0
 10
26.1101
 20
-9.6659
 30
0.0
 10
26.302
 20
-9.6659
 30
0.0
 10
26.302
 20
-9.6659
 30
0.0
 10
26.4958
 20
-9.6659
 30
0.0
 10
26.6492
 20
-9.72
 30
0.0
 10
26.7621
 20
-9.8272
 30
0.0
 10
26.7621
 20
-9.8272
 30
0.0
 10
26.8754
 20
-9.935
 30
0.0
 10
26.9319
 20
-10.0681
 30
0.0
 10
26.9319
 20
-10.2271
 30
0.0
 10
26.9319
 20
-10.2271
 30
0.0
 10
26.9319
 20
-10.308
 30
0.0
 10
26.9154
 20
-10.3875
 30
0.0
 10
26.882
 20
-10.4655
 30
0.0
 10
26.882
 20
-10.4655
 30
0.0
 10
26.8491
 20
-10.5436
 30
0.0
 10
26.794
 20
-10.6259
 30
0.0
 10
26.7174
 20
-10.712
 30
0.0
 10
26.7174
 20
-10.712
 30
0.0
 10
26.6407
 20
-10.7986
 30
0.0
 10
26.5132
 20
-10.9171
 30
0.0
 10
26.335
 20
-11.0676
 30
0.0
 10
26.335
 20
-11.0676
 30
0.0
 10
26.1863
 20
-11.1927
 30
0.0
 10
26.0908
 20
-11.2774
 30
0.0
 10
26.0485
 20
-11.3221
 30
0.0
 10
26.0485
 20
-11.3221
 30
0.0
 10
26.0062
 20
-11.3663
 30
0.0
 10
25.9714
 20
-11.411
 30
0.0
 10
25.9436
 20
-11.4561
 30
0.0
 10
25.9436
 20
-11.4561
 30
0.0
 10
25.9436
 20
-11.4561
 30
0.0
 10
26.9347
 20
-11.4561
 30
0.0
 10
26.9347
 20
-11.4561
 30
0.0
  0
SPLINE
  5
5D
330
1F
100
AcDbEntity
  8
AXIS
 62
   250
100
AcDbSpline
210
0.0
220
0.0
230
1.0
 70
    11
 71
     3
 72
    92
 73
    88
 74
     0
 42
0.0000000001
 43
0.0000000001
 40
0.0
 40
0.0
 40
0.0
 40
0.0
 40
0.0434782608695652
 40
0.0434782608695652
 40
0.0434782608695652
 40
0.0434782608695652
 40
0.0869565217391304
 40
0.0869565217391304
 40
0.0869565217391304
 40
0.0869565217391304
 40
0.1304347826086956
 40
0.1304347826086956
 40
0.1304347826086956
 40
0.1304347826086956
 40
0.1739130434782609
 40
0.1739130434782609
 40
0.1739130434782609
 40
0.1739130434782609
 40
0.2173913043478261
 40
0.2173913043478261
 40
0.2173913043478261
 40
0.2173913043478261
 40
0.2608695652173913
 40
0.2608695652173913
 40
0.2608695652173913
 40
0.2608695652173913
 40
0.3043478260869565
 40
0.3043478260869565
 40
0.3043478260869565
 40
0.3043478260869565
 40
0.3478260869565217
 40
0.3478260869565217
 40
0.3478260869565217
 40
0.3478260869565217
 40
0.391304347826087
 40
0.391304347826087
 40
0.391304347826087
 40
0.391304347826087
 40
0.4347826086956522
 40
0.4347826086956522
 40
0.4347826086956522
 40
0.4347826086956522
 40
0.4782608695652174
 40
0.4782608695652174
 40
0.4782608695652174
 40
0.4782608695652174
 40
0.5217391304347826
 40
0.5217391304347826
 40
0.5217391304347826
 40
0.5217391304347826
 40
0.5652173913043478
 40
0.5652173913043478
 40
0.5652173913043478
 40
0.5652173913043478
 40
0.6086956521739131
 40
0.6086956521739131
 40
0.6086956521739131
 40
0.6086956521739131
 40
0.6521739130434783
 40
0.6521739130434783
 40
0.6521739130434783
 40
0.6521739130434783
 40
0.6956521739130435
 40
0.6956521739130435
 40
0.6956521739130435
 40
0.6956521739130435
 40
0.7391304347826086
 40
0.7391304347826086
 40
0.7391304347826086
 40
0.7391304347826086
 40
0.782608695652174
 40
0.782608695652174
 40
0.782608695652174
 40
0.782608695652174
 40
0.8260869565217391
 40
0.8260869565217391
 40
0.8260869565217391
 40
0.8260869565217391
 40
0.8695652173913043
 40
0.8695652173913043
 40
0.8695652173913043
 40
0.8695652173913043
 40
0.9130434782608695
 40
0.9130434782608695
 40
0.9130434782608695
 40
0.9130434782608695
 40
1.0
 40
1.0
 40
1.0
 40
1.0
 10
-5.8726
 20
17.4071
 30
0.0
 10
-5.8726
 20
17.4071
 30
0.0
 10
-5.8726
 20
17.1686
 30
0.0
 10
-5.8726
 20
17.1686
 30
0.0
 10
-5.8726
 20
17.1686
 30
0.0
 10
-5.8726
 20
17.1686
 30
0.0
 10
-7.208
 20
17.1686
 30
0.0
 10
-7.208
 20
17.1686
 30
0.0
 10
-7.208
 20
17.1686
 30
0.0
 10
-7.2099
 20
17.2283
 30
0.0
 10
-7.2005
 20
17.2857
 30
0.0
 10
-7.1793
 20
17.3408
 30
0.0
 10
-7.1793
 20
17.3408
 30
0.0
 10
-7.1454
 20
17.432
 30
0.0
 10
-7.0909
 20
17.5214
 30
0.0
 10
-7.0161
 20
17.6098
 30
0.0
 10
-7.0161
 20
17.6098
 30
0.0
 10
-6.9408
 20
17.6978
 30
0.0
 10
-6.8326
 20
17.7998
 30
0.0
 10
-6.6915
 20
17.9155
 30
0.0
 10
-6.6915
 20
17.9155
 30
0.0
 10
-6.4719
 20
18.0957
 30
0.0
 10
-6.3232
 20
18.2382
 30
0.0
 10
-6.2461
 20
18.3436
 30
0.0
 10
-6.2461
 20
18.3436
 30
0.0
 10
-6.169
 20
18.4485
 30
0.0
 10
-6.1304
 20
18.5482
 30
0.0
 10
-6.1304
 20
18.6418
 30
0.0
 10
-6.1304
 20
18.6418
 30
0.0
 10
-6.1304
 20
18.7401
 30
0.0
 10
-6.1657
 20
18.8229
 30
0.0
 10
-6.2357
 20
18.8906
 30
0.0
 10
-6.2357
 20
18.8906
 30
0.0
 10
-6.3063
 20
18.9579
 30
0.0
 10
-6.398
 20
18.9917
 30
0.0
 10
-6.5109
 20
18.9917
 30
0.0
 10
-6.5109
 20
18.9917
 30
0.0
 10
-6.6304
 20
18.9917
 30
0.0
 10
-6.7259
 20
18.956
 30
0.0
 10
-6.7974
 20
18.884
 30
0.0
 10
-6.7974
 20
18.884
 30
0.0
 10
-6.8693
 20
18.8125
 30
0.0
 10
-6.9055
 20
18.7133
 30
0.0
 10
-6.9065
 20
18.5868
 30
0.0
 10
-6.9065
 20
18.5868
 30
0.0
 10
-6.9065
 20
18.5868
 30
0.0
 10
-7.1614
 20
18.6126
 30
0.0
 10
-7.1614
 20
18.6126
 30
0.0
 10
-7.1614
 20
18.6126
 30
0.0
 10
-7.144
 20
18.8031
 30
0.0
 10
-7.0782
 20
18.948
 30
0.0
 10
-6.9643
 20
19.0477
 30
0.0
 10
-6.9643
 20
19.0477
 30
0.0
 10
-6.8505
 20
19.1474
 30
0.0
 10
-6.6972
 20
19.1973
 30
0.0
 10
-6.5053
 20
19.1973
 30
0.0
 10
-6.5053
 20
19.1973
 30
0.0
 10
-6.3115
 20
19.1973
 30
0.0
 10
-6.1581
 20
19.1432
 30
0.0
 10
-6.0452
 20
19.036
 30
0.0
 10
-6.0452
 20
19.036
 30
0.0
 10
-5.9319
 20
18.9282
 30
0.0
 10
-5.8754
 20
18.7951
 30
0.0
 10
-5.8754
 20
18.6361
 30
0.0
 10
-5.8754
 20
18.6361
 30
0.0
 10
-5.8754
 20
18.5552
 30
0.0
 10
-5.8919
 20
18.4757
 30
0.0
 10
-5.9253
 20
18.3977
 30
0.0
 10
-5.9253
 20
18.3977
 30
0.0
 10
-5.9582
 20
18.3196
 30
0.0
 10
-6.0133
 20
18.2373
 30
0.0
 10
-6.0899
 20
18.1512
 30
0.0
 10
-6.0899
 20
18.1512
 30
0.0
 10
-6.1666
 20
18.0646
 30
0.0
 10
-6.2941
 20
17.9461
 30
0.0
 10
-6.4723
 20
17.7956
 30
0.0
 10
-6.4723
 20
17.7956
 30
0.0
 10
-6.621
 20
17.6705
 30
0.0
 10
-6.7165
 20
17.5858
 30
0.0
 10
-6.7588
 20
17.5411
 30
0.0
 10
-6.7588
 20
17.5411
 30
0.0
 10
-6.8011
 20
17.4969
 30
0.0
 10
-6.8359
 20
17.4522
 30
0.0
 10
-6.8637
 20
17.4071
 30
0.0
 10
-6.8637
 20
17.4071
 30
0.0
 10
-6.8637
 20
17.4071
 30
0.0
 10
-5.8726
 20
17.4071
 30
0.0
 10
-5.8726
 20
17.4071
 30
0.0
  0
SPLINE
  5
5E
330
1F
100
AcDbEntity
  8
AXIS
 62
   250
100
AcDbSpline
210
0.0
220
0.0
230
1.0
 70
    11
 71
     3
 72
    48
 73
    44
 74
     0
 42
0.0000000001
 43
0.0000000001
 40
0.0
 40
0.0
 40
0.0
 40
0.0
 40
0.0833333333333333
 40
0.0833333333333333
 40
0.0833333333333333
 40
0.0833333333333333
 40
0.1666666666666667
 40
0.1666666666666667
 40
0.1666666666666667
 40
0.1666666666666667
 40
0.25
 40
0.25
 40
0.25
 40
0.25
 40
0.3333333333333333
 40
0.3333333333333333
 40
0.3333333333333333
 40
0.3333333333333333
 40
0.4166666666666667
 40
0.4166666666666667
 40
0.4166666666666667
 40
0.4166666666666667
 40
0.5
 40
0.5
 40
0.5
 40
0.5
 40
0.5833333333333334
 40
0.5833333333333334
 40
0.5833333333333334
 40
0.5833333333333334
 40
0.6666666666666666
 40
0.6666666666666666
 40
0.6666666666666666
 40
0.6666666666666666
 40
0.75
 40
0.75
 40
0.75
 40
0.75
 40
0.8333333333333334
 40
0.8333333333333334
 40
0.8333333333333334
 40
0.8333333333333334
 40
1.0
 40
1.0
 40
1.0
 40
1.0
 10
-4.812
 20
17.1686
 30
0.0
 10
-4.812
 20
17.1686
 30
0.0
 10
-4.812
 20
17.6521
 30
0.0
 10
-4.812
 20
17.6521
 30
0.0
 10
-4.812
 20
17.6521
 30
0.0
 10
-4.812
 20
17.6521
 30
0.0
 10
-5.6883
 20
17.6521
 30
0.0
 10
-5.6883
 20
17.6521
 30
0.0
 10
-5.6883
 20
17.6521
 30
0.0
 10
-5.6883
 20
17.6521
 30
0.0
 10
-5.6883
 20
17.8798
 30
0.0
 10
-5.6883
 20
17.8798
 30
0.0
 10
-5.6883
 20
17.8798
 30
0.0
 10
-5.6883
 20
17.8798
 30
0.0
 10
-4.7663
 20
19.1888
 30
0.0
 10
-4.7663
 20
19.1888
 30
0.0
 10
-4.7663
 20
19.1888
 30
0.0
 10
-4.7663
 20
19.1888
 30
0.0
 10
-4.5636
 20
19.1888
 30
0.0
 10
-4.5636
 20
19.1888
 30
0.0
 10
-4.5636
 20
19.1888
 30
0.0
 10
-4.5636
 20
19.1888
 30
0.0
 10
-4.5636
 20
17.8798
 30
0.0
 10
-4.5636
 20
17.8798
 30
0.0
 10
-4.5636
 20
17.8798
 30
0.0
 10
-4.5636
 20
17.8798
 30
0.0
 10
-4.2908
 20
17.8798
 30
0.0
 10
-4.2908
 20
17.8798
 30
0.0
 10
-4.2908
 20
17.8798
 30
0.0
 10
-4.2908
 20
17.8798
 30
0.0
 10
-4.2908
 20
17.6521
 30
0.0
 10
-4.2908
 20
17.6521
 30
0.0
 10
-4.2908
 20
17.6521
 30
0.0
 10
-4.2908
 20
17.6521
 30
0.0
 10
-4.5636
 20
17.6521
 30
0.0
 10
-4.5636
 20
17.6521
 30
0.0
 10
-4.5636
 20
17.6521
 30
0.0
 10
-4.5636
 20
17.6521
 30
0.0
 10
-4.5636
 20
17.1686
 30
0.0
 10
-4.5636
 20
17.1686
 30
0.0
 10
-4.5636
 20
17.1686
 30
0.0
 10
-4.5636
 20
17.1686
 30
0.0
 10
-4.812
 20
17.1686
 30
0.0
 10
-4.812
 20
17.1686
 30
0.0
  0
SPLINE
  5
5F
330
1F
100
AcDbEntity
  8
AXIS
 62
   250
100
AcDbSpline
210
0.0
220
0.0
230
1.0
 70
    11
 71
     3
 72
    16
 73
    12
 74
     0
 42
0.0000000001
 43
0.0000000001
 40
0.0
 40
0.0
 40
0.0
 40
0.0
 40
0.25
 40
0.25
 40
0.25
 40
0.25
 40
0.5
 40
0.5
 40
0.5
 40
0.5
 40
1.0
 40
1.0
 40
1.0
 40
1.0
 10
-4.812
 20
17.8798
 30
0.0
 10
-4.812
 20
17.8798
 30
0.0
 10
-4.812
 20
18.7904
 30
0.0
 10
-4.812
 20
18.7904
 30
0.0
 10
-4.812
 20
18.7904
 30
0.0
 10
-4.812
 20
18.7904
 30
0.0
 10
-5.4441
 20
17.8798
 30
0.0
 10
-5.4441
 20
17.8798
 30
0.0
 10
-5.4441
 20
17.8798
 30
0.0
 10
-5.4441
 20
17.8798
 30
0.0
 10
-4.812
 20
17.8798
 30
0.0
 10
-4.812
 20
17.8798
 30
0.0
  0
SPLINE
  5
60
330
1F
100
AcDbEntity
  8
AXIS
 62
   250
100
AcDbSpline
210
0.0
220
0.0
230
1.0
 70
    11
 71
     3
 72
    48
 73
    44
 74
     0
 42
0.0000000001
 43
0.0000000001
 40
0.0
 40
0.0
 40
0.0
 40
0.0
 40
0.0833333333333333
 40
0.0833333333333333
 40
0.0833333333333333
 40
0.0833333333333333
 40
0.1666666666666667
 40
0.1666666666666667
 40
0.1666666666666667
 40
0.1666666666666667
 40
0.25
 40
0.25
 40
0.25
 40
0.25
 40
0.3333333333333333
 40
0.3333333333333333
 40
0.3333333333333333
 40
0.3333333333333333
 40
0.4166666666666667
 40
0.4166666666666667
 40
0.4166666666666667
 40
0.4166666666666667
 40
0.5
 40
0.5
 40
0.5
 40
0.5
 40
0.5833333333333334
 40
0.5833333333333334
 40
0.5833333333333334
 40
0.5833333333333334
 40
0.6666666666666666
 40
0.6666666666666666
 40
0.6666666666666666
 40
0.6666666666666666
 40
0.75
 40
0.75
 40
0.75
 40
0.75
 40
0.8333333333333334
 40
0.8333333333333334
 40
0.8333333333333334
 40
0.8333333333333334
 40
1.0
 40
1.0
 40
1.0
 40
1.0
 10
-4.0208
 20
18.924
 30
0.0
 10
-4.0208
 20
18.924
 30
0.0
 10
-4.0208
 20
19.1625
 30
0.0
 10
-4.0208
 20
19.1625
 30
0.0
 10
-4.0208
 20
19.1625
 30
0.0
 10
-4.0208
 20
19.1625
 30
0.0
 10
-2.7132
 20
19.1625
 30
0.0
 10
-2.7132
 20
19.1625
 30
0.0
 10
-2.7132
 20
19.1625
 30
0.0
 10
-2.7132
 20
19.1625
 30
0.0
 10
-2.7132
 20
18.9696
 30
0.0
 10
-2.7132
 20
18.9696
 30
0.0
 10
-2.7132
 20
18.9696
 30
0.0
 10
-2.8416
 20
18.8328
 30
0.0
 10
-2.9691
 20
18.6507
 30
0.0
 10
-3.0956
 20
18.424
 30
0.0
 10
-3.0956
 20
18.424
 30
0.0
 10
-3.2217
 20
18.1973
 30
0.0
 10
-3.3195
 20
17.9635
 30
0.0
 10
-3.3882
 20
17.7241
 30
0.0
 10
-3.3882
 20
17.7241
 30
0.0
 10
-3.438
 20
17.5548
 30
0.0
 10
-3.4695
 20
17.3699
 30
0.0
 10
-3.4832
 20
17.1686
 30
0.0
 10
-3.4832
 20
17.1686
 30
0.0
 10
-3.4832
 20
17.1686
 30
0.0
 10
-3.7381
 20
17.1686
 30
0.0
 10
-3.7381
 20
17.1686
 30
0.0
 10
-3.7381
 20
17.1686
 30
0.0
 10
-3.7353
 20
17.3276
 30
0.0
 10
-3.7043
 20
17.5195
 30
0.0
 10
-3.6445
 20
17.7448
 30
0.0
 10
-3.6445
 20
17.7448
 30
0.0
 10
-3.5848
 20
17.9696
 30
0.0
 10
-3.4992
 20
18.1869
 30
0.0
 10
-3.3877
 20
18.3958
 30
0.0
 10
-3.3877
 20
18.3958
 30
0.0
 10
-3.2758
 20
18.6046
 30
0.0
 10
-3.1572
 20
18.781
 30
0.0
 10
-3.0312
 20
18.924
 30
0.0
 10
-3.0312
 20
18.924
 30
0.0
 10
-3.0312
 20
18.924
 30
0.0
 10
-4.0208
 20
18.924
 30
0.0
 10
-4.0208
 20
18.924
 30
0.0
  0
SPLINE
  5
61
330
1F
100
AcDbEntity
  8
AXIS
 62
   250
100
AcDbSpline
210
0.0
220
0.0
230
1.0
 70
    11
 71
     3
 72
    44
 73
    40
 74
     0
 42
0.0000000001
 43
0.0000000001
 40
0.0
 40
0.0
 40
0.0
 40
0.0
 40
0.0909090909090909
 40
0.0909090909090909
 40
0.0909090909090909
 40
0.0909090909090909
 40
0.1818181818181818
 40
0.1818181818181818
 40
0.1818181818181818
 40
0.1818181818181818
 40
0.2727272727272727
 40
0.2727272727272727
 40
0.2727272727272727
 40
0.2727272727272727
 40
0.3636363636363636
 40
0.3636363636363636
 40
0.3636363636363636
 40
0.3636363636363636
 40
0.4545454545454545
 40
0.4545454545454545
 40
0.4545454545454545
 40
0.4545454545454545
 40
0.5454545454545454
 40
0.5454545454545454
 40
0.5454545454545454
 40
0.5454545454545454
 40
0.6363636363636364
 40
0.6363636363636364
 40
0.6363636363636364
 40
0.6363636363636364
 40
0.7272727272727273
 40
0.7272727272727273
 40
0.7272727272727273
 40
0.7272727272727273
 40
0.8181818181818182
 40
0.8181818181818182
 40
0.8181818181818182
 40
0.8181818181818182
 40
1.0
 40
1.0
 40
1.0
 40
1.0
 10
-15.4159
 20
-18.236
 30
0.0
 10
-15.5528
 20
-18.0633
 30
0.0
 10
-15.6685
 20
-17.8611
 30
0.0
 10
-15.763
 20
-17.6297
 30
0.0
 10
-15.763
 20
-17.6297
 30
0.0
 10
-15.8575
 20
-17.3978
 30
0.0
 10
-15.9051
 20
-17.1584
 30
0.0
 10
-15.9051
 20
-16.91
 30
0.0
 10
-15.9051
 20
-16.91
 30
0.0
 10
-15.9051
 20
-16.6913
 30
0.0
 10
-15.8698
 20
-16.482
 30
0.0
 10
-15.7988
 20
-16.2816
 30
0.0
 10
-15.7988
 20
-16.2816
 30
0.0
 10
-15.716
 20
-16.0492
 30
0.0
 10
-15.5885
 20
-15.8178
 30
0.0
 10
-15.4159
 20
-15.5873
 30
0.0
 10
-15.4159
 20
-15.5873
 30
0.0
 10
-15.4159
 20
-15.5873
 30
0.0
 10
-15.2381
 20
-15.5873
 30
0.0
 10
-15.2381
 20
-15.5873
 30
0.0
 10
-15.2381
 20
-15.5873
 30
0.0
 10
-15.3491
 20
-15.7783
 30
0.0
 10
-15.4225
 20
-15.9147
 30
0.0
 10
-15.4582
 20
-15.9966
 30
0.0
 10
-15.4582
 20
-15.9966
 30
0.0
 10
-15.5147
 20
-16.1231
 30
0.0
 10
-15.5584
 20
-16.2557
 30
0.0
 10
-15.5909
 20
-16.3935
 30
0.0
 10
-15.5909
 20
-16.3935
 30
0.0
 10
-15.6304
 20
-16.5652
 30
0.0
 10
-15.6501
 20
-16.7379
 30
0.0
 10
-15.6501
 20
-16.9114
 30
0.0
 10
-15.6501
 20
-16.9114
 30
0.0
 10
-15.6501
 20
-17.3536
 30
0.0
 10
-15.5128
 20
-17.7948
 30
0.0
 10
-15.2381
 20
-18.236
 30
0.0
 10
-15.2381
 20
-18.236
 30
0.0
 10
-15.2381
 20
-18.236
 30
0.0
 10
-15.4159
 20
-18.236
 30
0.0
 10
-15.4159
 20
-18.236
 30
0.0
  0
SPLINE
  5
62
330
1F
100
AcDbEntity
  8
AXIS
 62
   250
100
AcDbSpline
210
0.0
220
0.0
230
1.0
 70
    11
 71
     3
 72
    40
 73
    36
 74
     0
 42
0.0000000001
 43
0.0000000001
 40
0.0
 40
0.0
 40
0.0
 40
0.0
 40
0.1
 40
0.1
 40
0.1
 40
0.1
 40
0.2
 40
0.2
 40
0.2
 40
0.2
 40
0.3
 40
0.3
 40
0.3
 40
0.3
 40
0.4
 40
0.4
 40
0.4
 40
0.4
 40
0.5
 40
0.5
 40
0.5
 40
0.5
 40
0.6
 40
0.6
 40
0.6
 40
0.6
 40
0.7
 40
0.7
 40
0.7
 40
0.7
 40
0.8
 40
0.8
 40
0.8
 40
0.8
 40
1.0
 40
1.0
 40
1.0
 40
1.0
 10
-14.0847
 20
-17.6419
 30
0.0
 10
-14.0847
 20
-17.6419
 30
0.0
 10
-14.3326
 20
-17.6419
 30
0.0
 10
-14.3326
 20
-17.6419
 30
0.0
 10
-14.3326
 20
-17.6419
 30
0.0
 10
-14.3326
 20
-17.6419
 30
0.0
 10
-14.3326
 20
-16.0615
 30
0.0
 10
-14.3326
 20
-16.0615
 30
0.0
 10
-14.3326
 20
-16.0615
 30
0.0
 10
-14.3924
 20
-16.1184
 30
0.0
 10
-14.4704
 20
-16.1753
 30
0.0
 10
-14.5673
 20
-16.2322
 30
0.0
 10
-14.5673
 20
-16.2322
 30
0.0
 10
-14.6647
 20
-16.2891
 30
0.0
 10
-14.7517
 20
-16.3319
 30
0.0
 10
-14.8289
 20
-16.3602
 30
0.0
 10
-14.8289
 20
-16.3602
 30
0.0
 10
-14.8289
 20
-16.3602
 30
0.0
 10
-14.8289
 20
-16.1207
 30
0.0
 10
-14.8289
 20
-16.1207
 30
0.0
 10
-14.8289
 20
-16.1207
 30
0.0
 10
-14.6901
 20
-16.0554
 30
0.0
 10
-14.5687
 20
-15.9763
 30
0.0
 10
-14.4648
 20
-15.8837
 30
0.0
 10
-14.4648
 20
-15.8837
 30
0.0
 10
-14.3613
 20
-15.7905
 30
0.0
 10
-14.2875
 20
-15.7007
 30
0.0
 10
-14.2442
 20
-15.6132
 30
0.0
 10
-14.2442
 20
-15.6132
 30
0.0
 10
-14.2442
 20
-15.6132
 30
0.0
 10
-14.0847
 20
-15.6132
 30
0.0
 10
-14.0847
 20
-15.6132
 30
0.0
 10
-14.0847
 20
-15.6132
 30
0.0
 10
-14.0847
 20
-15.6132
 30
0.0
 10
-14.0847
 20
-17.6419
 30
0.0
 10
-14.0847
 20
-17.6419
 30
0.0
  0
SPLINE
  5
63
330
1F
100
AcDbEntity
  8
AXIS
 62
   250
100
AcDbSpline
210
0.0
220
0.0
230
1.0
 70
    11
 71
     3
 72
    48
 73
    44
 74
     0
 42
0.0000000001
 43
0.0000000001
 40
0.0
 40
0.0
 40
0.0
 40
0.0
 40
0.0833333333333333
 40
0.0833333333333333
 40
0.0833333333333333
 40
0.0833333333333333
 40
0.1666666666666667
 40
0.1666666666666667
 40
0.1666666666666667
 40
0.1666666666666667
 40
0.25
 40
0.25
 40
0.25
 40
0.25
 40
0.3333333333333333
 40
0.3333333333333333
 40
0.3333333333333333
 40
0.3333333333333333
 40
0.4166666666666667
 40
0.4166666666666667
 40
0.4166666666666667
 40
0.4166666666666667
 40
0.5
 40
0.5
 40
0.5
 40
0.5
 40
0.5833333333333334
 40
0.5833333333333334
 40
0.5833333333333334
 40
0.5833333333333334
 40
0.6666666666666666
 40
0.6666666666666666
 40
0.6666666666666666
 40
0.6666666666666666
 40
0.75
 40
0.75
 40
0.75
 40
0.75
 40
0.8333333333333334
 40
0.8333333333333334
 40
0.8333333333333334
 40
0.8333333333333334
 40
1.0
 40
1.0
 40
1.0
 40
1.0
 10
-12.6544
 20
-17.6419
 30
0.0
 10
-12.6544
 20
-17.6419
 30
0.0
 10
-12.6544
 20
-17.1584
 30
0.0
 10
-12.6544
 20
-17.1584
 30
0.0
 10
-12.6544
 20
-17.1584
 30
0.0
 10
-12.6544
 20
-17.1584
 30
0.0
 10
-13.5307
 20
-17.1584
 30
0.0
 10
-13.5307
 20
-17.1584
 30
0.0
 10
-13.5307
 20
-17.1584
 30
0.0
 10
-13.5307
 20
-17.1584
 30
0.0
 10
-13.5307
 20
-16.9307
 30
0.0
 10
-13.5307
 20
-16.9307
 30
0.0
 10
-13.5307
 20
-16.9307
 30
0.0
 10
-13.5307
 20
-16.9307
 30
0.0
 10
-12.6087
 20
-15.6217
 30
0.0
 10
-12.6087
 20
-15.6217
 30
0.0
 10
-12.6087
 20
-15.6217
 30
0.0
 10
-12.6087
 20
-15.6217
 30
0.0
 10
-12.406
 20
-15.6217
 30
0.0
 10
-12.406
 20
-15.6217
 30
0.0
 10
-12.406
 20
-15.6217
 30
0.0
 10
-12.406
 20
-15.6217
 30
0.0
 10
-12.406
 20
-16.9307
 30
0.0
 10
-12.406
 20
-16.9307
 30
0.0
 10
-12.406
 20
-16.9307
 30
0.0
 10
-12.406
 20
-16.9307
 30
0.0
 10
-12.1332
 20
-16.9307
 30
0.0
 10
-12.1332
 20
-16.9307
 30
0.0
 10
-12.1332
 20
-16.9307
 30
0.0
 10
-12.1332
 20
-16.9307
 30
0.0
 10
-12.1332
 20
-17.1584
 30
0.0
 10
-12.1332
 20
-17.1584
 30
0.0
 10
-12.1332
 20
-17.1584
 30
0.0
 10
-12.1332
 20
-17.1584
 30
0.0
 10
-12.406
 20
-17.1584
 30
0.0
 10
-12.406
 20
-17.1584
 30
0.0
 10
-12.406
 20
-17.1584
 30
0.0
 10
-12.406
 20
-17.1584
 30
0.0
 10
-12.406
 20
-17.6419
 30
0.0
 10
-12.406
 20
-17.6419
 30
0.0
 10
-12.406
 20
-17.6419
 30
0.0
 10
-12.406
 20
-17.6419
 30
0.0
 10
-12.6544
 20
-17.6419
 30
0.0
 10
-12.6544
 20
-17.6419
 30
0.0
  0
SPLINE
  5
64
330
1F
100
AcDbEntity
  8
AXIS
 62
   250
100
AcDbSpline
210
0.0
220
0.0
230
1.0
 70
    11
 71
     3
 72
    16
 73
    12
 74
     0
 42
0.0000000001
 43
0.0000000001
 40
0.0
 40
0.0
 40
0.0
 40
0.0
 40
0.25
 40
0.25
 40
0.25
 40
0.25
 40
0.5
 40
0.5
 40
0.5
 40
0.5
 40
1.0
 40
1.0
 40
1.0
 40
1.0
 10
-12.6544
 20
-16.9307
 30
0.0
 10
-12.6544
 20
-16.9307
 30
0.0
 10
-12.6544
 20
-16.0201
 30
0.0
 10
-12.6544
 20
-16.0201
 30
0.0
 10
-12.6544
 20
-16.0201
 30
0.0
 10
-12.6544
 20
-16.0201
 30
0.0
 10
-13.2865
 20
-16.9307
 30
0.0
 10
-13.2865
 20
-16.9307
 30
0.0
 10
-13.2865
 20
-16.9307
 30
0.0
 10
-13.2865
 20
-16.9307
 30
0.0
 10
-12.6544
 20
-16.9307
 30
0.0
 10
-12.6544
 20
-16.9307
 30
0.0
  0
SPLINE
  5
65
330
1F
100
AcDbEntity
  8
AXIS
 62
   250
100
AcDbSpline
210
0.0
220
0.0
230
1.0
 70
    11
 71
     3
 72
    92
 73
    88
 74
     0
 42
0.0000000001
 43
0.0000000001
 40
0.0
 40
0.0
 40
0.0
 40
0.0
 40
0.0434782608695652
 40
0.0434782608695652
 40
0.0434782608695652
 40
0.0434782608695652
 40
0.0869565217391304
 40
0.0869565217391304
 40
0.0869565217391304
 40
0.0869565217391304
 40
0.1304347826086956
 40
0.1304347826086956
 40
0.1304347826086956
 40
0.1304347826086956
 40
0.1739130434782609
 40
0.1739130434782609
 40
0.1739130434782609
 40
0.1739130434782609
 40
0.2173913043478261
 40
0.2173913043478261
 40
0.2173913043478261
 40
0.2173913043478261
 40
0.2608695652173913
 40
0.2608695652173913
 40
0.2608695652173913
 40
0.2608695652173913
 40
0.3043478260869565
 40
0.3043478260869565
 40
0.3043478260869565
 40
0.3043478260869565
 40
0.3478260869565217
 40
0.3478260869565217
 40
0.3478260869565217
 40
0.3478260869565217
 40
0.391304347826087
 40
0.391304347826087
 40
0.391304347826087
 40
0.391304347826087
 40
0.4347826086956522
 40
0.4347826086956522
 40
0.4347826086956522
 40
0.4347826086956522
 40
0.4782608695652174
 40
0.4782608695652174
 40
0.4782608695652174
 40
0.4782608695652174
 40
0.5217391304347826
 40
0.5217391304347826
 40
0.5217391304347826
 40
0.5217391304347826
 40
0.5652173913043478
 40
0.5652173913043478
 40
0.5652173913043478
 40
0.5652173913043478
 40
0.6086956521739131
 40
0.6086956521739131
 40
0.6086956521739131
 40
0.6086956521739131
 40
0.6521739130434783
 40
0.6521739130434783
 40
0.6521739130434783
 40
0.6521739130434783
 40
0.6956521739130435
 40
0.6956521739130435
 40
0.6956521739130435
 40
0.6956521739130435
 40
0.7391304347826086
 40
0.7391304347826086
 40
0.7391304347826086
 40
0.7391304347826086
 40
0.782608695652174
 40
0.782608695652174
 40
0.782608695652174
 40
0.782608695652174
 40
0.8260869565217391
 40
0.8260869565217391
 40
0.8260869565217391
 40
0.8260869565217391
 40
0.8695652173913043
 40
0.8695652173913043
 40
0.8695652173913043
 40
0.8695652173913043
 40
0.9130434782608695
 40
0.9130434782608695
 40
0.9130434782608695
 40
0.9130434782608695
 40
1.0
 40
1.0
 40
1.0
 40
1.0
 10
-10.5758
 20
-17.4034
 30
0.0
 10
-10.5758
 20
-17.4034
 30
0.0
 10
-10.5758
 20
-17.6419
 30
0.0
 10
-10.5758
 20
-17.6419
 30
0.0
 10
-10.5758
 20
-17.6419
 30
0.0
 10
-10.5758
 20
-17.6419
 30
0.0
 10
-11.9112
 20
-17.6419
 30
0.0
 10
-11.9112
 20
-17.6419
 30
0.0
 10
-11.9112
 20
-17.6419
 30
0.0
 10
-11.9131
 20
-17.5822
 30
0.0
 10
-11.9037
 20
-17.5248
 30
0.0
 10
-11.8825
 20
-17.4697
 30
0.0
 10
-11.8825
 20
-17.4697
 30
0.0
 10
-11.8486
 20
-17.3785
 30
0.0
 10
-11.7941
 20
-17.2891
 30
0.0
 10
-11.7193
 20
-17.2007
 30
0.0
 10
-11.7193
 20
-17.2007
 30
0.0
 10
-11.644
 20
-17.1127
 30
0.0
 10
-11.5358
 20
-17.0107
 30
0.0
 10
-11.3947
 20
-16.895
 30
0.0
 10
-11.3947
 20
-16.895
 30
0.0
 10
-11.1751
 20
-16.7148
 30
0.0
 10
-11.0264
 20
-16.5723
 30
0.0
 10
-10.9493
 20
-16.4669
 30
0.0
 10
-10.9493
 20
-16.4669
 30
0.0
 10
-10.8722
 20
-16.362
 30
0.0
 10
-10.8336
 20
-16.2623
 30
0.0
 10
-10.8336
 20
-16.1687
 30
0.0
 10
-10.8336
 20
-16.1687
 30
0.0
 10
-10.8336
 20
-16.0704
 30
0.0
 10
-10.8689
 20
-15.9876
 30
0.0
 10
-10.9389
 20
-15.9199
 30
0.0
 10
-10.9389
 20
-15.9199
 30
0.0
 10
-11.0095
 20
-15.8526
 30
0.0
 10
-11.1012
 20
-15.8188
 30
0.0
 10
-11.2141
 20
-15.8188
 30
0.0
 10
-11.2141
 20
-15.8188
 30
0.0
 10
-11.3336
 20
-15.8188
 30
0.0
 10
-11.4291
 20
-15.8545
 30
0.0
 10
-11.5006
 20
-15.9265
 30
0.0
 10
-11.5006
 20
-15.9265
 30
0.0
 10
-11.5725
 20
-15.998
 30
0.0
 10
-11.6087
 20
-16.0972
 30
0.0
 10
-11.6097
 20
-16.2237
 30
0.0
 10
-11.6097
 20
-16.2237
 30
0.0
 10
-11.6097
 20
-16.2237
 30
0.0
 10
-11.8646
 20
-16.1979
 30
0.0
 10
-11.8646
 20
-16.1979
 30
0.0
 10
-11.8646
 20
-16.1979
 30
0.0
 10
-11.8472
 20
-16.0074
 30
0.0
 10
-11.7814
 20
-15.8625
 30
0.0
 10
-11.6675
 20
-15.7628
 30
0.0
 10
-11.6675
 20
-15.7628
 30
0.0
 10
-11.5537
 20
-15.6631
 30
0.0
 10
-11.4004
 20
-15.6132
 30
0.0
 10
-11.2085
 20
-15.6132
 30
0.0
 10
-11.2085
 20
-15.6132
 30
0.0
 10
-11.0147
 20
-15.6132
 30
0.0
 10
-10.8613
 20
-15.6673
 30
0.0
 10
-10.7484
 20
-15.7745
 30
0.0
 10
-10.7484
 20
-15.7745
 30
0.0
 10
-10.6351
 20
-15.8823
 30
0.0
 10
-10.5786
 20
-16.0154
 30
0.0
 10
-10.5786
 20
-16.1744
 30
0.0
 10
-10.5786
 20
-16.1744
 30
0.0
 10
-10.5786
 20
-16.2553
 30
0.0
 10
-10.5951
 20
-16.3348
 30
0.0
 10
-10.6285
 20
-16.4128
 30
0.0
 10
-10.6285
 20
-16.4128
 30
0.0
 10
-10.6614
 20
-16.4909
 30
0.0
 10
-10.7165
 20
-16.5732
 30
0.0
 10
-10.7931
 20
-16.6593
 30
0.0
 10
-10.7931
 20
-16.6593
 30
0.0
 10
-10.8698
 20
-16.7459
 30
0.0
 10
-10.9973
 20
-16.8644
 30
0.0
 10
-11.1755
 20
-17.0149
 30
0.0
 10
-11.1755
 20
-17.0149
 30
0.0
 10
-11.3242
 20
-17.14
 30
0.0
 10
-11.4197
 20
-17.2247
 30
0.0
 10
-11.462
 20
-17.2694
 30
0.0
 10
-11.462
 20
-17.2694
 30
0.0
 10
-11.5043
 20
-17.3136
 30
0.0
 10
-11.5391
 20
-17.3583
 30
0.0
 10
-11.5669
 20
-17.4034
 30
0.0
 10
-11.5669
 20
-17.4034
 30
0.0
 10
-11.5669
 20
-17.4034
 30
0.0
 10
-10.5758
 20
-17.4034
 30
0.0
 10
-10.5758
 20
-17.4034
 30
0.0
  0
SPLINE
  5
66
330
1F
100
AcDbEntity
  8
AXIS
 62
   250
100
AcDbSpline
210
0.0
220
0.0
230
1.0
 70
    11
 71
     3
 72
    44
 73
    40
 74
     0
 42
0.0000000001
 43
0.0000000001
 40
0.0
 40
0.0
 40
0.0
 40
0.0
 40
0.0909090909090909
 40
0.0909090909090909
 40
0.0909090909090909
 40
0.0909090909090909
 40
0.1818181818181818
 40
0.1818181818181818
 40
0.1818181818181818
 40
0.1818181818181818
 40
0.2727272727272727
 40
0.2727272727272727
 40
0.2727272727272727
 40
0.2727272727272727
 40
0.3636363636363636
 40
0.3636363636363636
 40
0.3636363636363636
 40
0.3636363636363636
 40
0.4545454545454545
 40
0.4545454545454545
 40
0.4545454545454545
 40
0.4545454545454545
 40
0.5454545454545454
 40
0.5454545454545454
 40
0.5454545454545454
 40
0.5454545454545454
 40
0.6363636363636364
 40
0.6363636363636364
 40
0.6363636363636364
 40
0.6363636363636364
 40
0.7272727272727273
 40
0.7272727272727273
 40
0.7272727272727273
 40
0.7272727272727273
 40
0.8181818181818182
 40
0.8181818181818182
 40
0.8181818181818182
 40
0.8181818181818182
 40
1.0
 40
1.0
 40
1.0
 40
1.0
 10
-10.0787
 20
-18.236
 30
0.0
 10
-10.0787
 20
-18.236
 30
0.0
 10
-10.2565
 20
-18.236
 30
0.0
 10
-10.2565
 20
-18.236
 30
0.0
 10
-10.2565
 20
-18.236
 30
0.0
 10
-9.9818
 20
-17.7948
 30
0.0
 10
-9.8444
 20
-17.3536
 30
0.0
 10
-9.8444
 20
-16.9114
 30
0.0
 10
-9.8444
 20
-16.9114
 30
0.0
 10
-9.8444
 20
-16.7388
 30
0.0
 10
-9.8642
 20
-16.5676
 30
0.0
 10
-9.9037
 20
-16.3973
 30
0.0
 10
-9.9037
 20
-16.3973
 30
0.0
 10
-9.9347
 20
-16.26
 30
0.0
 10
-9.9785
 20
-16.1273
 30
0.0
 10
-10.0344
 20
-16.0008
 30
0.0
 10
-10.0344
 20
-16.0008
 30
0.0
 10
-10.0702
 20
-15.918
 30
0.0
 10
-10.144
 20
-15.7802
 30
0.0
 10
-10.2565
 20
-15.5873
 30
0.0
 10
-10.2565
 20
-15.5873
 30
0.0
 10
-10.2565
 20
-15.5873
 30
0.0
 10
-10.0787
 20
-15.5873
 30
0.0
 10
-10.0787
 20
-15.5873
 30
0.0
 10
-10.0787
 20
-15.5873
 30
0.0
 10
-9.906
 20
-15.8178
 30
0.0
 10
-9.7781
 20
-16.0492
 30
0.0
 10
-9.6953
 20
-16.2816
 30
0.0
 10
-9.6953
 20
-16.2816
 30
0.0
 10
-9.6248
 20
-16.482
 30
0.0
 10
-9.5895
 20
-16.6913
 30
0.0
 10
-9.5895
 20
-16.91
 30
0.0
 10
-9.5895
 20
-16.91
 30
0.0
 10
-9.5895
 20
-17.1584
 30
0.0
 10
-9.637
 20
-17.3978
 30
0.0
 10
-9.732
 20
-17.6297
 30
0.0
 10
-9.732
 20
-17.6297
 30
0.0
 10
-9.827
 20
-17.8611
 30
0.0
 10
-9.9427
 20
-18.0633
 30
0.0
 10
-10.0787
 20
-18.236
 30
0.0
  0
SPLINE
  5
67
330
1F
100
AcDbEntity
  8
AXIS
 62
   250
100
AcDbSpline
210
0.0
220
0.0
230
1.0
 70
    11
 71
     3
 72
    44
 73
    40
 74
     0
 42
0.0000000001
 43
0.0000000001
 40
0.0
 40
0.0
 40
0.0
 40
0.0
 40
0.0909090909090909
 40
0.0909090909090909
 40
0.0909090909090909
 40
0.0909090909090909
 40
0.1818181818181818
 40
0.1818181818181818
 40
0.1818181818181818
 40
0.1818181818181818
 40
0.2727272727272727
 40
0.2727272727272727
 40
0.2727272727272727
 40
0.2727272727272727
 40
0.3636363636363636
 40
0.3636363636363636
 40
0.3636363636363636
 40
0.3636363636363636
 40
0.4545454545454545
 40
0.4545454545454545
 40
0.4545454545454545
 40
0.4545454545454545
 40
0.5454545454545454
 40
0.5454545454545454
 40
0.5454545454545454
 40
0.5454545454545454
 40
0.6363636363636364
 40
0.6363636363636364
 40
0.6363636363636364
 40
0.6363636363636364
 40
0.7272727272727273
 40
0.7272727272727273
 40
0.7272727272727273
 40
0.7272727272727273
 40
0.8181818181818182
 40
0.8181818181818182
 40
0.8181818181818182
 40
0.8181818181818182
 40
1.0
 40
1.0
 40
1.0
 40
1.0
 10
4.6323
 20
-18.23
 30
0.0
 10
4.4954
 20
-18.0573
 30
0.0
 10
4.3797
 20
-17.8551
 30
0.0
 10
4.2852
 20
-17.6237
 30
0.0
 10
4.2852
 20
-17.6237
 30
0.0
 10
4.1907
 20
-17.3918
 30
0.0
 10
4.1431
 20
-17.1524
 30
0.0
 10
4.1431
 20
-16.904
 30
0.0
 10
4.1431
 20
-16.904
 30
0.0
 10
4.1431
 20
-16.6853
 30
0.0
 10
4.1784
 20
-16.476
 30
0.0
 10
4.2494
 20
-16.2756
 30
0.0
 10
4.2494
 20
-16.2756
 30
0.0
 10
4.3322
 20
-16.0432
 30
0.0
 10
4.4597
 20
-15.8118
 30
0.0
 10
4.6323
 20
-15.5813
 30
0.0
 10
4.6323
 20
-15.5813
 30
0.0
 10
4.6323
 20
-15.5813
 30
0.0
 10
4.8101
 20
-15.5813
 30
0.0
 10
4.8101
 20
-15.5813
 30
0.0
 10
4.8101
 20
-15.5813
 30
0.0
 10
4.6991
 20
-15.7723
 30
0.0
 10
4.6257
 20
-15.9087
 30
0.0
 10
4.59
 20
-15.9906
 30
0.0
 10
4.59
 20
-15.9906
 30
0.0
 10
4.5335
 20
-16.1171
 30
0.0
 10
4.4898
 20
-16.2497
 30
0.0
 10
4.4573
 20
-16.3875
 30
0.0
 10
4.4573
 20
-16.3875
 30
0.0
 10
4.4178
 20
-16.5592
 30
0.0
 10
4.3981
 20
-16.7319
 30
0.0
 10
4.3981
 20
-16.9054
 30
0.0
 10
4.3981
 20
-16.9054
 30
0.0
 10
4.3981
 20
-17.3476
 30
0.0
 10
4.5354
 20
-17.7888
 30
0.0
 10
4.8101
 20
-18.23
 30
0.0
 10
4.8101
 20
-18.23
 30
0.0
 10
4.8101
 20
-18.23
 30
0.0
 10
4.6323
 20
-18.23
 30
0.0
 10
4.6323
 20
-18.23
 30
0.0
  0
SPLINE
  5
68
330
1F
100
AcDbEntity
  8
AXIS
 62
   250
100
AcDbSpline
210
0.0
220
0.0
230
1.0
 70
    11
 71
     3
 72
    40
 73
    36
 74
     0
 42
0.0000000001
 43
0.0000000001
 40
0.0
 40
0.0
 40
0.0
 40
0.0
 40
0.1
 40
0.1
 40
0.1
 40
0.1
 40
0.2
 40
0.2
 40
0.2
 40
0.2
 40
0.3
 40
0.3
 40
0.3
 40
0.3
 40
0.4
 40
0.4
 40
0.4
 40
0.4
 40
0.5
 40
0.5
 40
0.5
 40
0.5
 40
0.6
 40
0.6
 40
0.6
 40
0.6
 40
0.7
 40
0.7
 40
0.7
 40
0.7
 40
0.8
 40
0.8
 40
0.8
 40
0.8
 40
1.0
 40
1.0
 40
1.0
 40
1.0
 10
5.9635
 20
-17.6359
 30
0.0
 10
5.9635
 20
-17.6359
 30
0.0
 10
5.7156
 20
-17.6359
 30
0.0
 10
5.7156
 20
-17.6359
 30
0.0
 10
5.7156
 20
-17.6359
 30
0.0
 10
5.7156
 20
-17.6359
 30
0.0
 10
5.7156
 20
-16.0555
 30
0.0
 10
5.7156
 20
-16.0555
 30
0.0
 10
5.7156
 20
-16.0555
 30
0.0
 10
5.6558
 20
-16.1124
 30
0.0
 10
5.5778
 20
-16.1693
 30
0.0
 10
5.4809
 20
-16.2262
 30
0.0
 10
5.4809
 20
-16.2262
 30
0.0
 10
5.3835
 20
-16.2831
 30
0.0
 10
5.2965
 20
-16.3259
 30
0.0
 10
5.2193
 20
-16.3542
 30
0.0
 10
5.2193
 20
-16.3542
 30
0.0
 10
5.2193
 20
-16.3542
 30
0.0
 10
5.2193
 20
-16.1147
 30
0.0
 10
5.2193
 20
-16.1147
 30
0.0
 10
5.2193
 20
-16.1147
 30
0.0
 10
5.3581
 20
-16.0494
 30
0.0
 10
5.4795
 20
-15.9703
 30
0.0
 10
5.5834
 20
-15.8777
 30
0.0
 10
5.5834
 20
-15.8777
 30
0.0
 10
5.6869
 20
-15.7845
 30
0.0
 10
5.7607
 20
-15.6947
 30
0.0
 10
5.804
 20
-15.6072
 30
0.0
 10
5.804
 20
-15.6072
 30
0.0
 10
5.804
 20
-15.6072
 30
0.0
 10
5.9635
 20
-15.6072
 30
0.0
 10
5.9635
 20
-15.6072
 30
0.0
 10
5.9635
 20
-15.6072
 30
0.0
 10
5.9635
 20
-15.6072
 30
0.0
 10
5.9635
 20
-17.6359
 30
0.0
 10
5.9635
 20
-17.6359
 30
0.0
  0
SPLINE
  5
69
330
1F
100
AcDbEntity
  8
AXIS
 62
   250
100
AcDbSpline
210
0.0
220
0.0
230
1.0
 70
    11
 71
     3
 72
    52
 73
    48
 74
     0
 42
0.0000000001
 43
0.0000000001
 40
0.0
 40
0.0
 40
0.0
 40
0.0
 40
0.0769230769230769
 40
0.0769230769230769
 40
0.0769230769230769
 40
0.0769230769230769
 40
0.1538461538461539
 40
0.1538461538461539
 40
0.1538461538461539
 40
0.1538461538461539
 40
0.2307692307692308
 40
0.2307692307692308
 40
0.2307692307692308
 40
0.2307692307692308
 40
0.3076923076923077
 40
0.3076923076923077
 40
0.3076923076923077
 40
0.3076923076923077
 40
0.3846153846153846
 40
0.3846153846153846
 40
0.3846153846153846
 40
0.3846153846153846
 40
0.4615384615384616
 40
0.4615384615384616
 40
0.4615384615384616
 40
0.4615384615384616
 40
0.5384615384615384
 40
0.5384615384615384
 40
0.5384615384615384
 40
0.5384615384615384
 40
0.6153846153846154
 40
0.6153846153846154
 40
0.6153846153846154
 40
0.6153846153846154
 40
0.6923076923076923
 40
0.6923076923076923
 40
0.6923076923076923
 40
0.6923076923076923
 40
0.7692307692307693
 40
0.7692307692307693
 40
0.7692307692307693
 40
0.7692307692307693
 40
0.8461538461538461
 40
0.8461538461538461
 40
0.8461538461538461
 40
0.8461538461538461
 40
1.0
 40
1.0
 40
1.0
 40
1.0
 10
6.5989
 20
-16.6397
 30
0.0
 10
6.5989
 20
-16.4007
 30
0.0
 10
6.6234
 20
-16.2083
 30
0.0
 10
6.6728
 20
-16.063
 30
0.0
 10
6.6728
 20
-16.063
 30
0.0
 10
6.7217
 20
-15.9172
 30
0.0
 10
6.7951
 20
-15.8048
 30
0.0
 10
6.892
 20
-15.7257
 30
0.0
 10
6.892
 20
-15.7257
 30
0.0
 10
6.9889
 20
-15.6467
 30
0.0
 10
7.1107
 20
-15.6072
 30
0.0
 10
7.2574
 20
-15.6072
 30
0.0
 10
7.2574
 20
-15.6072
 30
0.0
 10
7.3661
 20
-15.6072
 30
0.0
 10
7.4611
 20
-15.6293
 30
0.0
 10
7.5429
 20
-15.6731
 30
0.0
 10
7.5429
 20
-15.6731
 30
0.0
 10
7.6248
 20
-15.7163
 30
0.0
 10
7.6921
 20
-15.7794
 30
0.0
 10
7.7457
 20
-15.8617
 30
0.0
 10
7.7457
 20
-15.8617
 30
0.0
 10
7.7988
 20
-15.944
 30
0.0
 10
7.8407
 20
-16.0442
 30
0.0
 10
7.8708
 20
-16.1622
 30
0.0
 10
7.8708
 20
-16.1622
 30
0.0
 10
7.9014
 20
-16.2803
 30
0.0
 10
7.9164
 20
-16.4393
 30
0.0
 10
7.9164
 20
-16.6397
 30
0.0
 10
7.9164
 20
-16.6397
 30
0.0
 10
7.9164
 20
-16.8767
 30
0.0
 10
7.892
 20
-17.0677
 30
0.0
 10
7.8435
 20
-17.2135
 30
0.0
 10
7.8435
 20
-17.2135
 30
0.0
 10
7.7946
 20
-17.3593
 30
0.0
 10
7.7217
 20
-17.4717
 30
0.0
 10
7.6248
 20
-17.5512
 30
0.0
 10
7.6248
 20
-17.5512
 30
0.0
 10
7.5279
 20
-17.6307
 30
0.0
 10
7.4056
 20
-17.6702
 30
0.0
 10
7.2574
 20
-17.6702
 30
0.0
 10
7.2574
 20
-17.6702
 30
0.0
 10
7.0627
 20
-17.6702
 30
0.0
 10
6.9098
 20
-17.6006
 30
0.0
 10
6.7988
 20
-17.4609
 30
0.0
 10
6.7988
 20
-17.4609
 30
0.0
 10
6.6657
 20
-17.293
 30
0.0
 10
6.5989
 20
-17.0188
 30
0.0
 10
6.5989
 20
-16.6397
 30
0.0
  0
SPLINE
  5
6A
330
1F
100
AcDbEntity
  8
AXIS
 62
   250
100
AcDbSpline
210
0.0
220
0.0
230
1.0
 70
    11
 71
     3
 72
    36
 73
    32
 74
     0
 42
0.0000000001
 43
0.0000000001
 40
0.0
 40
0.0
 40
0.0
 40
0.0
 40
0.1111111111111111
 40
0.1111111111111111
 40
0.1111111111111111
 40
0.1111111111111111
 40
0.2222222222222222
 40
0.2222222222222222
 40
0.2222222222222222
 40
0.2222222222222222
 40
0.3333333333333333
 40
0.3333333333333333
 40
0.3333333333333333
 40
0.3333333333333333
 40
0.4444444444444444
 40
0.4444444444444444
 40
0.4444444444444444
 40
0.4444444444444444
 40
0.5555555555555556
 40
0.5555555555555556
 40
0.5555555555555556
 40
0.5555555555555556
 40
0.6666666666666666
 40
0.6666666666666666
 40
0.6666666666666666
 40
0.6666666666666666
 40
0.7777777777777778
 40
0.7777777777777778
 40
0.7777777777777778
 40
0.7777777777777778
 40
1.0
 40
1.0
 40
1.0
 40
1.0
 10
6.8539
 20
-16.6397
 30
0.0
 10
6.8539
 20
-16.9713
 30
0.0
 10
6.8929
 20
-17.1919
 30
0.0
 10
6.9705
 20
-17.3019
 30
0.0
 10
6.9705
 20
-17.3019
 30
0.0
 10
7.0481
 20
-17.4115
 30
0.0
 10
7.1436
 20
-17.4666
 30
0.0
 10
7.2574
 20
-17.4666
 30
0.0
 10
7.2574
 20
-17.4666
 30
0.0
 10
7.3717
 20
-17.4666
 30
0.0
 10
7.4672
 20
-17.4111
 30
0.0
 10
7.5448
 20
-17.301
 30
0.0
 10
7.5448
 20
-17.301
 30
0.0
 10
7.6224
 20
-17.1909
 30
0.0
 10
7.6615
 20
-16.9703
 30
0.0
 10
7.6615
 20
-16.6397
 30
0.0
 10
7.6615
 20
-16.6397
 30
0.0
 10
7.6615
 20
-16.3071
 30
0.0
 10
7.6224
 20
-16.086
 30
0.0
 10
7.5448
 20
-15.9769
 30
0.0
 10
7.5448
 20
-15.9769
 30
0.0
 10
7.4672
 20
-15.8673
 30
0.0
 10
7.3708
 20
-15.8128
 30
0.0
 10
7.2551
 20
-15.8128
 30
0.0
 10
7.2551
 20
-15.8128
 30
0.0
 10
7.1408
 20
-15.8128
 30
0.0
 10
7.05
 20
-15.8612
 30
0.0
 10
6.9818
 20
-15.9576
 30
0.0
 10
6.9818
 20
-15.9576
 30
0.0
 10
6.8967
 20
-16.0804
 30
0.0
 10
6.8539
 20
-16.3081
 30
0.0
 10
6.8539
 20
-16.6397
 30
0.0
  0
SPLINE
  5
6B
330
1F
100
AcDbEntity
  8
AXIS
 62
   250
100
AcDbSpline
210
0.0
220
0.0
230
1.0
 70
    11
 71
     3
 72
    48
 73
    44
 74
     0
 42
0.0000000001
 43
0.0000000001
 40
0.0
 40
0.0
 40
0.0
 40
0.0
 40
0.0833333333333333
 40
0.0833333333333333
 40
0.0833333333333333
 40
0.0833333333333333
 40
0.1666666666666667
 40
0.1666666666666667
 40
0.1666666666666667
 40
0.1666666666666667
 40
0.25
 40
0.25
 40
0.25
 40
0.25
 40
0.3333333333333333
 40
0.3333333333333333
 40
0.3333333333333333
 40
0.3333333333333333
 40
0.4166666666666667
 40
0.4166666666666667
 40
0.4166666666666667
 40
0.4166666666666667
 40
0.5
 40
0.5
 40
0.5
 40
0.5
 40
0.5833333333333334
 40
0.5833333333333334
 40
0.5833333333333334
 40
0.5833333333333334
 40
0.6666666666666666
 40
0.6666666666666666
 40
0.6666666666666666
 40
0.6666666666666666
 40
0.75
 40
0.75
 40
0.75
 40
0.75
 40
0.8333333333333334
 40
0.8333333333333334
 40
0.8333333333333334
 40
0.8333333333333334
 40
1.0
 40
1.0
 40
1.0
 40
1.0
 10
8.9634
 20
-17.6359
 30
0.0
 10
8.9634
 20
-17.6359
 30
0.0
 10
8.9634
 20
-17.1524
 30
0.0
 10
8.9634
 20
-17.1524
 30
0.0
 10
8.9634
 20
-17.1524
 30
0.0
 10
8.9634
 20
-17.1524
 30
0.0
 10
8.0871
 20
-17.1524
 30
0.0
 10
8.0871
 20
-17.1524
 30
0.0
 10
8.0871
 20
-17.1524
 30
0.0
 10
8.0871
 20
-17.1524
 30
0.0
 10
8.0871
 20
-16.9247
 30
0.0
 10
8.0871
 20
-16.9247
 30
0.0
 10
8.0871
 20
-16.9247
 30
0.0
 10
8.0871
 20
-16.9247
 30
0.0
 10
9.0091
 20
-15.6157
 30
0.0
 10
9.0091
 20
-15.6157
 30
0.0
 10
9.0091
 20
-15.6157
 30
0.0
 10
9.0091
 20
-15.6157
 30
0.0
 10
9.2118
 20
-15.6157
 30
0.0
 10
9.2118
 20
-15.6157
 30
0.0
 10
9.2118
 20
-15.6157
 30
0.0
 10
9.2118
 20
-15.6157
 30
0.0
 10
9.2118
 20
-16.9247
 30
0.0
 10
9.2118
 20
-16.9247
 30
0.0
 10
9.2118
 20
-16.9247
 30
0.0
 10
9.2118
 20
-16.9247
 30
0.0
 10
9.4846
 20
-16.9247
 30
0.0
 10
9.4846
 20
-16.9247
 30
0.0
 10
9.4846
 20
-16.9247
 30
0.0
 10
9.4846
 20
-16.9247
 30
0.0
 10
9.4846
 20
-17.1524
 30
0.0
 10
9.4846
 20
-17.1524
 30
0.0
 10
9.4846
 20
-17.1524
 30
0.0
 10
9.4846
 20
-17.1524
 30
0.0
 10
9.2118
 20
-17.1524
 30
0.0
 10
9.2118
 20
-17.1524
 30
0.0
 10
9.2118
 20
-17.1524
 30
0.0
 10
9.2118
 20
-17.1524
 30
0.0
 10
9.2118
 20
-17.6359
 30
0.0
 10
9.2118
 20
-17.6359
 30
0.0
 10
9.2118
 20
-17.6359
 30
0.0
 10
9.2118
 20
-17.6359
 30
0.0
 10
8.9634
 20
-17.6359
 30
0.0
 10
8.9634
 20
-17.6359
 30
0.0
  0
SPLINE
  5
6C
330
1F
100
AcDbEntity
  8
AXIS
 62
   250
100
AcDbSpline
210
0.0
220
0.0
230
1.0
 70
    11
 71
     3
 72
    16
 73
    12
 74
     0
 42
0.0000000001
 43
0.0000000001
 40
0.0
 40
0.0
 40
0.0
 40
0.0
 40
0.25
 40
0.25
 40
0.25
 40
0.25
 40
0.5
 40
0.5
 40
0.5
 40
0.5
 40
1.0
 40
1.0
 40
1.0
 40
1.0
 10
8.9634
 20
-16.9247
 30
0.0
 10
8.9634
 20
-16.9247
 30
0.0
 10
8.9634
 20
-16.0141
 30
0.0
 10
8.9634
 20
-16.0141
 30
0.0
 10
8.9634
 20
-16.0141
 30
0.0
 10
8.9634
 20
-16.0141
 30
0.0
 10
8.3313
 20
-16.9247
 30
0.0
 10
8.3313
 20
-16.9247
 30
0.0
 10
8.3313
 20
-16.9247
 30
0.0
 10
8.3313
 20
-16.9247
 30
0.0
 10
8.9634
 20
-16.9247
 30
0.0
 10
8.9634
 20
-16.9247
 30
0.0
  0
SPLINE
  5
6D
330
1F
100
AcDbEntity
  8
AXIS
 62
   250
100
AcDbSpline
210
0.0
220
0.0
230
1.0
 70
    11
 71
     3
 72
    44
 73
    40
 74
     0
 42
0.0000000001
 43
0.0000000001
 40
0.0
 40
0.0
 40
0.0
 40
0.0
 40
0.0909090909090909
 40
0.0909090909090909
 40
0.0909090909090909
 40
0.0909090909090909
 40
0.1818181818181818
 40
0.1818181818181818
 40
0.1818181818181818
 40
0.1818181818181818
 40
0.2727272727272727
 40
0.2727272727272727
 40
0.2727272727272727
 40
0.2727272727272727
 40
0.3636363636363636
 40
0.3636363636363636
 40
0.3636363636363636
 40
0.3636363636363636
 40
0.4545454545454545
 40
0.4545454545454545
 40
0.4545454545454545
 40
0.4545454545454545
 40
0.5454545454545454
 40
0.5454545454545454
 40
0.5454545454545454
 40
0.5454545454545454
 40
0.6363636363636364
 40
0.6363636363636364
 40
0.6363636363636364
 40
0.6363636363636364
 40
0.7272727272727273
 40
0.7272727272727273
 40
0.7272727272727273
 40
0.7272727272727273
 40
0.8181818181818182
 40
0.8181818181818182
 40
0.8181818181818182
 40
0.8181818181818182
 40
1.0
 40
1.0
 40
1.0
 40
1.0
 10
9.9695
 20
-18.23
 30
0.0
 10
9.9695
 20
-18.23
 30
0.0
 10
9.7917
 20
-18.23
 30
0.0
 10
9.7917
 20
-18.23
 30
0.0
 10
9.7917
 20
-18.23
 30
0.0
 10
10.0664
 20
-17.7888
 30
0.0
 10
10.2038
 20
-17.3476
 30
0.0
 10
10.2038
 20
-16.9054
 30
0.0
 10
10.2038
 20
-16.9054
 30
0.0
 10
10.2038
 20
-16.7328
 30
0.0
 10
10.184
 20
-16.5616
 30
0.0
 10
10.1445
 20
-16.3913
 30
0.0
 10
10.1445
 20
-16.3913
 30
0.0
 10
10.1135
 20
-16.254
 30
0.0
 10
10.0697
 20
-16.1213
 30
0.0
 10
10.0138
 20
-15.9948
 30
0.0
 10
10.0138
 20
-15.9948
 30
0.0
 10
9.978
 20
-15.912
 30
0.0
 10
9.9042
 20
-15.7742
 30
0.0
 10
9.7917
 20
-15.5813
 30
0.0
 10
9.7917
 20
-15.5813
 30
0.0
 10
9.7917
 20
-15.5813
 30
0.0
 10
9.9695
 20
-15.5813
 30
0.0
 10
9.9695
 20
-15.5813
 30
0.0
 10
9.9695
 20
-15.5813
 30
0.0
 10
10.1422
 20
-15.8118
 30
0.0
 10
10.2701
 20
-16.0432
 30
0.0
 10
10.3529
 20
-16.2756
 30
0.0
 10
10.3529
 20
-16.2756
 30
0.0
 10
10.4234
 20
-16.476
 30
0.0
 10
10.4587
 20
-16.6853
 30
0.0
 10
10.4587
 20
-16.904
 30
0.0
 10
10.4587
 20
-16.904
 30
0.0
 10
10.4587
 20
-17.1524
 30
0.0
 10
10.4112
 20
-17.3918
 30
0.0
 10
10.3162
 20
-17.6237
 30
0.0
 10
10.3162
 20
-17.6237
 30
0.0
 10
10.2212
 20
-17.8551
 30
0.0
 10
10.1055
 20
-18.0573
 30
0.0
 10
9.9695
 20
-18.23
 30
0.0
  0
SPLINE
  5
6E
330
1F
100
AcDbEntity
  8
AXIS
 62
   250
100
AcDbSpline
210
0.0
220
0.0
230
1.0
 70
    11
 71
     3
 72
    40
 73
    36
 74
     0
 42
0.0000000001
 43
0.0000000001
 40
0.0
 40
0.0
 40
0.0
 40
0.0
 40
0.1
 40
0.1
 40
0.1
 40
0.1
 40
0.2
 40
0.2
 40
0.2
 40
0.2
 40
0.3
 40
0.3
 40
0.3
 40
0.3
 40
0.4
 40
0.4
 40
0.4
 40
0.4
 40
0.5
 40
0.5
 40
0.5
 40
0.5
 40
0.6
 40
0.6
 40
0.6
 40
0.6
 40
0.7
 40
0.7
 40
0.7
 40
0.7
 40
0.8
 40
0.8
 40
0.8
 40
0.8
 40
1.0
 40
1.0
 40
1.0
 40
1.0
 10
-30.6505
 20
-1.4974
 30
0.0
 10
-30.6505
 20
-1.4974
 30
0.0
 10
-30.6505
 20
-1.7453
 30
0.0
 10
-30.6505
 20
-1.7453
 30
0.0
 10
-30.6505
 20
-1.7453
 30
0.0
 10
-30.6505
 20
-1.7453
 30
0.0
 10
-32.2309
 20
-1.7453
 30
0.0
 10
-32.2309
 20
-1.7453
 30
0.0
 10
-32.2309
 20
-1.7453
 30
0.0
 10
-32.174
 20
-1.8051
 30
0.0
 10
-32.1171
 20
-1.8831
 30
0.0
 10
-32.0602
 20
-1.98
 30
0.0
 10
-32.0602
 20
-1.98
 30
0.0
 10
-32.0033
 20
-2.0774
 30
0.0
 10
-31.9605
 20
-2.1644
 30
0.0
 10
-31.9322
 20
-2.2416
 30
0.0
 10
-31.9322
 20
-2.2416
 30
0.0
 10
-31.9322
 20
-2.2416
 30
0.0
 10
-32.1717
 20
-2.2416
 30
0.0
 10
-32.1717
 20
-2.2416
 30
0.0
 10
-32.1717
 20
-2.2416
 30
0.0
 10
-32.237
 20
-2.1028
 30
0.0
 10
-32.3161
 20
-1.9814
 30
0.0
 10
-32.4087
 20
-1.8775
 30
0.0
 10
-32.4087
 20
-1.8775
 30
0.0
 10
-32.5019
 20
-1.774
 30
0.0
 10
-32.5917
 20
-1.7002
 30
0.0
 10
-32.6792
 20
-1.6569
 30
0.0
 10
-32.6792
 20
-1.6569
 30
0.0
 10
-32.6792
 20
-1.6569
 30
0.0
 10
-32.6792
 20
-1.4974
 30
0.0
 10
-32.6792
 20
-1.4974
 30
0.0
 10
-32.6792
 20
-1.4974
 30
0.0
 10
-32.6792
 20
-1.4974
 30
0.0
 10
-30.6505
 20
-1.4974
 30
0.0
 10
-30.6505
 20
-1.4974
 30
0.0
  0
SPLINE
  5
6F
330
1F
100
AcDbEntity
  8
AXIS
 62
   250
100
AcDbSpline
210
0.0
220
0.0
230
1.0
 70
    11
 71
     3
 72
    80
 73
    76
 74
     0
 42
0.0000000001
 43
0.0000000001
 40
0.0
 40
0.0
 40
0.0
 40
0.0
 40
0.05
 40
0.05
 40
0.05
 40
0.05
 40
0.1
 40
0.1
 40
0.1
 40
0.1
 40
0.15
 40
0.15
 40
0.15
 40
0.15
 40
0.2
 40
0.2
 40
0.2
 40
0.2
 40
0.25
 40
0.25
 40
0.25
 40
0.25
 40
0.3
 40
0.3
 40
0.3
 40
0.3
 40
0.35
 40
0.35
 40
0.35
 40
0.35
 40
0.4
 40
0.4
 40
0.4
 40
0.4
 40
0.45
 40
0.45
 40
0.45
 40
0.45
 40
0.5
 40
0.5
 40
0.5
 40
0.5
 40
0.55
 40
0.55
 40
0.55
 40
0.55
 40
0.6
 40
0.6
 40
0.6
 40
0.6
 40
0.65
 40
0.65
 40
0.65
 40
0.65
 40
0.7
 40
0.7
 40
0.7
 40
0.7
 40
0.75
 40
0.75
 40
0.75
 40
0.75
 40
0.8
 40
0.8
 40
0.8
 40
0.8
 40
0.85
 40
0.85
 40
0.85
 40
0.85
 40
0.9
 40
0.9
 40
0.9
 40
0.9
 40
1.0
 40
1.0
 40
1.0
 40
1.0
 10
-32.1759
 20
0.4249
 30
0.0
 10
-32.1759
 20
0.4249
 30
0.0
 10
-32.1566
 20
0.1785
 30
0.0
 10
-32.1566
 20
0.1785
 30
0.0
 10
-32.1566
 20
0.1785
 30
0.0
 10
-32.254
 20
0.1564
 30
0.0
 10
-32.325
 20
0.1253
 30
0.0
 10
-32.3687
 20
0.0849
 30
0.0
 10
-32.3687
 20
0.0849
 30
0.0
 10
-32.4398
 20
0.0176
 30
0.0
 10
-32.4751
 20
-0.0652
 30
0.0
 10
-32.4751
 20
-0.1635
 30
0.0
 10
-32.4751
 20
-0.1635
 30
0.0
 10
-32.4751
 20
-0.2425
 30
0.0
 10
-32.4529
 20
-0.3116
 30
0.0
 10
-32.4087
 20
-0.3714
 30
0.0
 10
-32.4087
 20
-0.3714
 30
0.0
 10
-32.3518
 20
-0.4495
 30
0.0
 10
-32.2686
 20
-0.5111
 30
0.0
 10
-32.1594
 20
-0.5562
 30
0.0
 10
-32.1594
 20
-0.5562
 30
0.0
 10
-32.0503
 20
-0.6009
 30
0.0
 10
-31.8946
 20
-0.6244
 30
0.0
 10
-31.6924
 20
-0.6263
 30
0.0
 10
-31.6924
 20
-0.6263
 30
0.0
 10
-31.7831
 20
-0.5666
 30
0.0
 10
-31.8509
 20
-0.4937
 30
0.0
 10
-31.8951
 20
-0.4071
 30
0.0
 10
-31.8951
 20
-0.4071
 30
0.0
 10
-31.9388
 20
-0.3211
 30
0.0
 10
-31.9609
 20
-0.2303
 30
0.0
 10
-31.9609
 20
-0.1357
 30
0.0
 10
-31.9609
 20
-0.1357
 30
0.0
 10
-31.9609
 20
0.0298
 30
0.0
 10
-31.9003
 20
0.1705
 30
0.0
 10
-31.7784
 20
0.2867
 30
0.0
 10
-31.7784
 20
0.2867
 30
0.0
 10
-31.6566
 20
0.4028
 30
0.0
 10
-31.4995
 20
0.4612
 30
0.0
 10
-31.3067
 20
0.4612
 30
0.0
 10
-31.3067
 20
0.4612
 30
0.0
 10
-31.1797
 20
0.4612
 30
0.0
 10
-31.0621
 20
0.4334
 30
0.0
 10
-30.9529
 20
0.3788
 30
0.0
 10
-30.9529
 20
0.3788
 30
0.0
 10
-30.8443
 20
0.3243
 30
0.0
 10
-30.7606
 20
0.249
 30
0.0
 10
-30.7027
 20
0.1535
 30
0.0
 10
-30.7027
 20
0.1535
 30
0.0
 10
-30.6449
 20
0.0581
 30
0.0
 10
-30.6162
 20
-0.0501
 30
0.0
 10
-30.6162
 20
-0.1715
 30
0.0
 10
-30.6162
 20
-0.1715
 30
0.0
 10
-30.6162
 20
-0.3784
 30
0.0
 10
-30.6919
 20
-0.5468
 30
0.0
 10
-30.8443
 20
-0.6771
 30
0.0
 10
-30.8443
 20
-0.6771
 30
0.0
 10
-30.9962
 20
-0.8079
 30
0.0
 10
-31.2469
 20
-0.8728
 30
0.0
 10
-31.5959
 20
-0.8728
 30
0.0
 10
-31.5959
 20
-0.8728
 30
0.0
 10
-31.9863
 20
-0.8728
 30
0.0
 10
-32.27
 20
-0.8008
 30
0.0
 10
-32.4473
 20
-0.6564
 30
0.0
 10
-32.4473
 20
-0.6564
 30
0.0
 10
-32.6016
 20
-0.5308
 30
0.0
 10
-32.6792
 20
-0.3615
 30
0.0
 10
-32.6792
 20
-0.148
 30
0.0
 10
-32.6792
 20
-0.148
 30
0.0
 10
-32.6792
 20
0.0106
 30
0.0
 10
-32.6345
 20
0.1408
 30
0.0
 10
-32.5451
 20
0.2424
 30
0.0
 10
-32.5451
 20
0.2424
 30
0.0
 10
-32.4562
 20
0.344
 30
0.0
 10
-32.333
 20
0.4047
 30
0.0
 10
-32.1759
 20
0.4249
 30
0.0
  0
SPLINE
  5
70
330
1F
100
AcDbEntity
  8
AXIS
 62
   250
100
AcDbSpline
210
0.0
220
0.0
230
1.0
 70
    11
 71
     3
 72
    40
 73
    36
 74
     0
 42
0.0000000001
 43
0.0000000001
 40
0.0
 40
0.0
 40
0.0
 40
0.0
 40
0.1
 40
0.1
 40
0.1
 40
0.1
 40
0.2
 40
0.2
 40
0.2
 40
0.2
 40
0.3
 40
0.3
 40
0.3
 40
0.3
 40
0.4
 40
0.4
 40
0.4
 40
0.4
 40
0.5
 40
0.5
 40
0.5
 40
0.5
 40
0.6
 40
0.6
 40
0.6
 40
0.6
 40
0.7
 40
0.7
 40
0.7
 40
0.7
 40
0.8
 40
0.8
 40
0.8
 40
0.8
 40
1.0
 40
1.0
 40
1.0
 40
1.0
 10
-31.3053
 20
-0.5878
 30
0.0
 10
-31.2196
 20
-0.5878
 30
0.0
 10
-31.1378
 20
-0.5694
 30
0.0
 10
-31.0597
 20
-0.5332
 30
0.0
 10
-31.0597
 20
-0.5332
 30
0.0
 10
-30.9816
 20
-0.497
 30
0.0
 10
-30.9224
 20
-0.4462
 30
0.0
 10
-30.8815
 20
-0.3813
 30
0.0
 10
-30.8815
 20
-0.3813
 30
0.0
 10
-30.8405
 20
-0.3159
 30
0.0
 10
-30.8198
 20
-0.2472
 30
0.0
 10
-30.8198
 20
-0.1757
 30
0.0
 10
-30.8198
 20
-0.1757
 30
0.0
 10
-30.8198
 20
-0.0708
 30
0.0
 10
-30.8622
 20
0.019
 30
0.0
 10
-30.9468
 20
0.0943
 30
0.0
 10
-30.9468
 20
0.0943
 30
0.0
 10
-31.0315
 20
0.1695
 30
0.0
 10
-31.1463
 20
0.2072
 30
0.0
 10
-31.2911
 20
0.2072
 30
0.0
 10
-31.2911
 20
0.2072
 30
0.0
 10
-31.4308
 20
0.2072
 30
0.0
 10
-31.5409
 20
0.17
 30
0.0
 10
-31.6213
 20
0.0957
 30
0.0
 10
-31.6213
 20
0.0957
 30
0.0
 10
-31.7018
 20
0.0214
 30
0.0
 10
-31.7418
 20
-0.0722
 30
0.0
 10
-31.7418
 20
-0.1851
 30
0.0
 10
-31.7418
 20
-0.1851
 30
0.0
 10
-31.7418
 20
-0.2975
 30
0.0
 10
-31.7018
 20
-0.3926
 30
0.0
 10
-31.6213
 20
-0.4706
 30
0.0
 10
-31.6213
 20
-0.4706
 30
0.0
 10
-31.5409
 20
-0.5487
 30
0.0
 10
-31.4355
 20
-0.5878
 30
0.0
 10
-31.3053
 20
-0.5878
 30
0.0
  0
SPLINE
  5
71
330
1F
100
AcDbEntity
  8
AXIS
 62
   250
100
AcDbSpline
210
0.0
220
0.0
230
1.0
 70
    11
 71
     3
 72
    92
 73
    88
 74
     0
 42
0.0000000001
 43
0.0000000001
 40
0.0
 40
0.0
 40
0.0
 40
0.0
 40
0.0434782608695652
 40
0.0434782608695652
 40
0.0434782608695652
 40
0.0434782608695652
 40
0.0869565217391304
 40
0.0869565217391304
 40
0.0869565217391304
 40
0.0869565217391304
 40
0.1304347826086956
 40
0.1304347826086956
 40
0.1304347826086956
 40
0.1304347826086956
 40
0.1739130434782609
 40
0.1739130434782609
 40
0.1739130434782609
 40
0.1739130434782609
 40
0.2173913043478261
 40
0.2173913043478261
 40
0.2173913043478261
 40
0.2173913043478261
 40
0.2608695652173913
 40
0.2608695652173913
 40
0.2608695652173913
 40
0.2608695652173913
 40
0.3043478260869565
 40
0.3043478260869565
 40
0.3043478260869565
 40
0.3043478260869565
 40
0.3478260869565217
 40
0.3478260869565217
 40
0.3478260869565217
 40
0.3478260869565217
 40
0.391304347826087
 40
0.391304347826087
 40
0.391304347826087
 40
0.391304347826087
 40
0.4347826086956522
 40
0.4347826086956522
 40
0.4347826086956522
 40
0.4347826086956522
 40
0.4782608695652174
 40
0.4782608695652174
 40
0.4782608695652174
 40
0.4782608695652174
 40
0.5217391304347826
 40
0.5217391304347826
 40
0.5217391304347826
 40
0.5217391304347826
 40
0.5652173913043478
 40
0.5652173913043478
 40
0.5652173913043478
 40
0.5652173913043478
 40
0.6086956521739131
 40
0.6086956521739131
 40
0.6086956521739131
 40
0.6086956521739131
 40
0.6521739130434783
 40
0.6521739130434783
 40
0.6521739130434783
 40
0.6521739130434783
 40
0.6956521739130435
 40
0.6956521739130435
 40
0.6956521739130435
 40
0.6956521739130435
 40
0.7391304347826086
 40
0.7391304347826086
 40
0.7391304347826086
 40
0.7391304347826086
 40
0.782608695652174
 40
0.782608695652174
 40
0.782608695652174
 40
0.782608695652174
 40
0.8260869565217391
 40
0.8260869565217391
 40
0.8260869565217391
 40
0.8260869565217391
 40
0.8695652173913043
 40
0.8695652173913043
 40
0.8695652173913043
 40
0.8695652173913043
 40
0.9130434782608695
 40
0.9130434782608695
 40
0.9130434782608695
 40
0.9130434782608695
 40
1.0
 40
1.0
 40
1.0
 40
1.0
 10
-31.1797
 20
0.7076
 30
0.0
 10
-31.1797
 20
0.7076
 30
0.0
 10
-31.2018
 20
0.9682
 30
0.0
 10
-31.2018
 20
0.9682
 30
0.0
 10
-31.2018
 20
0.9682
 30
0.0
 10
-31.0748
 20
0.9875
 30
0.0
 10
-30.9798
 20
1.0322
 30
0.0
 10
-30.9158
 20
1.1023
 30
0.0
 10
-30.9158
 20
1.1023
 30
0.0
 10
-30.8518
 20
1.1728
 30
0.0
 10
-30.8198
 20
1.2575
 30
0.0
 10
-30.8198
 20
1.3567
 30
0.0
 10
-30.8198
 20
1.3567
 30
0.0
 10
-30.8198
 20
1.4762
 30
0.0
 10
-30.865
 20
1.5773
 30
0.0
 10
-30.9548
 20
1.6596
 30
0.0
 10
-30.9548
 20
1.6596
 30
0.0
 10
-31.0451
 20
1.7424
 30
0.0
 10
-31.1646
 20
1.7838
 30
0.0
 10
-31.3132
 20
1.7838
 30
0.0
 10
-31.3132
 20
1.7838
 30
0.0
 10
-31.4548
 20
1.7838
 30
0.0
 10
-31.5663
 20
1.7443
 30
0.0
 10
-31.6481
 20
1.6648
 30
0.0
 10
-31.6481
 20
1.6648
 30
0.0
 10
-31.73
 20
1.5853
 30
0.0
 10
-31.7709
 20
1.4814
 30
0.0
 10
-31.7709
 20
1.3525
 30
0.0
 10
-31.7709
 20
1.3525
 30
0.0
 10
-31.7709
 20
1.2725
 30
0.0
 10
-31.7526
 20
1.2006
 30
0.0
 10
-31.7164
 20
1.1361
 30
0.0
 10
-31.7164
 20
1.1361
 30
0.0
 10
-31.6801
 20
1.0717
 30
0.0
 10
-31.6331
 20
1.0214
 30
0.0
 10
-31.5752
 20
0.9847
 30
0.0
 10
-31.5752
 20
0.9847
 30
0.0
 10
-31.5752
 20
0.9847
 30
0.0
 10
-31.6053
 20
0.7518
 30
0.0
 10
-31.6053
 20
0.7518
 30
0.0
 10
-31.6053
 20
0.7518
 30
0.0
 10
-31.6053
 20
0.7518
 30
0.0
 10
-32.643
 20
0.9475
 30
0.0
 10
-32.643
 20
0.9475
 30
0.0
 10
-32.643
 20
0.9475
 30
0.0
 10
-32.643
 20
0.9475
 30
0.0
 10
-32.643
 20
1.9522
 30
0.0
 10
-32.643
 20
1.9522
 30
0.0
 10
-32.643
 20
1.9522
 30
0.0
 10
-32.643
 20
1.9522
 30
0.0
 10
-32.4059
 20
1.9522
 30
0.0
 10
-32.4059
 20
1.9522
 30
0.0
 10
-32.4059
 20
1.9522
 30
0.0
 10
-32.4059
 20
1.9522
 30
0.0
 10
-32.4059
 20
1.146
 30
0.0
 10
-32.4059
 20
1.146
 30
0.0
 10
-32.4059
 20
1.146
 30
0.0
 10
-32.4059
 20
1.146
 30
0.0
 10
-31.8631
 20
1.0369
 30
0.0
 10
-31.8631
 20
1.0369
 30
0.0
 10
-31.8631
 20
1.0369
 30
0.0
 10
-31.9478
 20
1.1582
 30
0.0
 10
-31.9901
 20
1.2857
 30
0.0
 10
-31.9901
 20
1.4188
 30
0.0
 10
-31.9901
 20
1.4188
 30
0.0
 10
-31.9901
 20
1.5952
 30
0.0
 10
-31.929
 20
1.7438
 30
0.0
 10
-31.8067
 20
1.8652
 30
0.0
 10
-31.8067
 20
1.8652
 30
0.0
 10
-31.6844
 20
1.9865
 30
0.0
 10
-31.5273
 20
2.0472
 30
0.0
 10
-31.3354
 20
2.0472
 30
0.0
 10
-31.3354
 20
2.0472
 30
0.0
 10
-31.1524
 20
2.0472
 30
0.0
 10
-30.9943
 20
1.9936
 30
0.0
 10
-30.8612
 20
1.8873
 30
0.0
 10
-30.8612
 20
1.8873
 30
0.0
 10
-30.698
 20
1.7575
 30
0.0
 10
-30.6162
 20
1.5806
 30
0.0
 10
-30.6162
 20
1.3567
 30
0.0
 10
-30.6162
 20
1.3567
 30
0.0
 10
-30.6162
 20
1.1728
 30
0.0
 10
-30.6674
 20
1.0228
 30
0.0
 10
-30.7704
 20
0.9066
 30
0.0
 10
-30.7704
 20
0.9066
 30
0.0
 10
-30.8735
 20
0.7904
 30
0.0
 10
-31.0099
 20
0.7241
 30
0.0
 10
-31.1797
 20
0.7076
 30
0.0
  0
SPLINE
  5
72
330
1F
100
AcDbEntity
  8
AXIS
100
AcDbSpline
210
0.0
220
0.0
230
1.0
 70
    24
 71
     3
 72
     8
 73
     4
 74
     0
 42
0.0000000001
 43
0.0000000001
 40
0.0
 40
0.0
 40
0.0
 40
0.0
 40
1.0
 40
1.0
 40
1.0
 40
1.0
 10
-25.2229
 20
-13.9215
 30
0.0
 10
-25.2229
 20
-13.9215
 30
0.0
 10
-25.2229
 20
13.3753
 30
0.0
 10
-25.2229
 20
13.3753
 30
0.0
  0
SPLINE
  5
73
330
1F
100
AcDbEntity
  8
AXIS
100
AcDbSpline
210
0.0
220
0.0
230
1.0
 70
    24
 71
     3
 72
     8
 73
     4
 74
     0
 42
0.0000000001
 43
0.0000000001
 40
0.0
 40
0.0
 40
0.0
 40
0.0
 40
1.0
 40
1.0
 40
1.0
 40
1.0
 10
15.6396
 20
-13.9215
 30
0.0
 10
15.6396
 20
-13.9215
 30
0.0
 10
-25.2229
 20
-13.9215
 30
0.0
 10
-25.2229
 20
-13.9215
 30
0.0
  0
SPLINE
  5
74
330
1F
100
AcDbEntity
  8
AXIS
100
AcDbSpline
210
0.0
220
0.0
230
1.0
 70
    24
 71
     3
 72
     8
 73
     4
 74
     0
 42
0.0000000001
 43
0.0000000001
 40
0.0
 40
0.0
 40
0.0
 40
0.0
 40
1.0
 40
1.0
 40
1.0
 40
1.0
 10
-1.7181
 20
-13.8095
 30
0.0
 10
-1.7181
 20
-13.8095
 30
0.0
 10
-1.7181
 20
13.244
 30
0.0
 10
-1.7181
 20
13.244
 30
0.0
  0
SPLINE
  5
75
330
1F
100
AcDbEntity
  8
AXIS
100
AcDbSpline
210
0.0
220
0.0
230
1.0
 70
    24
 71
     3
 72
     8
 73
     4
 74
     0
 42
0.0000000001
 43
0.0000000001
 40
0.0
 40
0.0
 40
0.0
 40
0.0
 40
1.0
 40
1.0
 40
1.0
 40
1.0
 10
-1.5653
 20
13.2881
 30
0.0
 10
-1.5653
 20
13.2881
 30
0.0
 10
-1.5653
 20
-13.7655
 30
0.0
 10
-1.5653
 20
-13.7655
 30
0.0
  0
SPLINE
  5
76
330
1F
100
AcDbEntity
  8
AXIS
100
AcDbSpline
210
0.0
220
0.0
230
1.0
 70
    24
 71
     3
 72
     8
 73
     4
 74
     0
 42
0.0000000001
 43
0.0000000001
 40
0.0
 40
0.0
 40
0.0
 40
0.0
 40
1.0
 40
1.0
 40
1.0
 40
1.0
 10
15.6396
 20
13.3753
 30
0.0
 10
15.6396
 20
13.3753
 30
0.0
 10
-25.2229
 20
13.3753
 30
0.0
 10
-25.2229
 20
13.3753
 30
0.0
  0
SPLINE
  5
77
330
1F
100
AcDbEntity
  8
AXIS
100
AcDbSpline
210
0.0
220
0.0
230
1.0
 70
    24
 71
     3
 72
     8
 73
     4
 74
     0
 42
0.0000000001
 43
0.0000000001
 40
0.0
 40
0.0
 40
0.0
 40
0.0
 40
1.0
 40
1.0
 40
1.0
 40
1.0
 10
15.6396
 20
-13.9215
 30
0.0
 10
15.6396
 20
-13.9215
 30
0.0
 10
15.6396
 20
13.3753
 30
0.0
 10
15.6396
 20
13.3753
 30
0.0
  0
SPLINE
  5
78
330
1F
100
AcDbEntity
  8
AXIS
 62
   250
100
AcDbSpline
210
0.0
220
0.0
230
1.0
 70
    24
 71
     3
 72
     8
 73
     4
 74
     0
 42
0.0000000001
 43
0.0000000001
 40
0.0
 40
0.0
 40
0.0
 40
0.0
 40
1.0
 40
1.0
 40
1.0
 40
1.0
 10
-1.6415
 20
-14.4048
 30
0.0
 10
-1.6415
 20
-14.4048
 30
0.0
 10
-1.6415
 20
-19.1202
 30
0.0
 10
-1.6415
 20
-19.1202
 30
0.0
  0
SPLINE
  5
79
330
1F
100
AcDbEntity
  8
AXIS
 62
   250
100
AcDbSpline
210
0.0
220
0.0
230
1.0
 70
    24
 71
     3
 72
     8
 73
     4
 74
     0
 42
0.0000000001
 43
0.0000000001
 40
0.0
 40
0.0
 40
0.0
 40
0.0
 40
1.0
 40
1.0
 40
1.0
 40
1.0
 10
15.6421
 20
-18.5784
 30
0.0
 10
15.6421
 20
-18.5784
 30
0.0
 10
-1.5643
 20
-18.5784
 30
0.0
 10
-1.5643
 20
-18.5784
 30
0.0
  0
SPLINE
  5
7A
330
1F
100
AcDbEntity
  8
AXIS
 62
   250
100
AcDbSpline
210
0.0
220
0.0
230
1.0
 70
    24
 71
     3
 72
     8
 73
     4
 74
     0
 42
0.0000000001
 43
0.0000000001
 40
0.0
 40
0.0
 40
0.0
 40
0.0
 40
1.0
 40
1.0
 40
1.0
 40
1.0
 10
24.5474
 20
-13.9215
 30
0.0
 10
24.5474
 20
-13.9215
 30
0.0
 10
23.7202
 20
-13.9215
 30
0.0
 10
23.7202
 20
-13.9215
 30
0.0
  0
SPLINE
  5
7B
330
1F
100
AcDbEntity
  8
AXIS
 62
   250
100
AcDbSpline
210
0.0
220
0.0
230
1.0
 70
    24
 71
     3
 72
     8
 73
     4
 74
     0
 42
0.0000000001
 43
0.0000000001
 40
0.0
 40
0.0
 40
0.0
 40
0.0
 40
1.0
 40
1.0
 40
1.0
 40
1.0
 10
24.2165
 20
-13.0943
 30
0.0
 10
24.2165
 20
-13.0943
 30
0.0
 10
23.7202
 20
-13.0943
 30
0.0
 10
23.7202
 20
-13.0943
 30
0.0
  0
SPLINE
  5
7C
330
1F
100
AcDbEntity
  8
AXIS
 62
   250
100
AcDbSpline
210
0.0
220
0.0
230
1.0
 70
    24
 71
     3
 72
     8
 73
     4
 74
     0
 42
0.0000000001
 43
0.0000000001
 40
0.0
 40
0.0
 40
0.0
 40
0.0
 40
1.0
 40
1.0
 40
1.0
 40
1.0
 10
21.877
 20
-10.861
 30
0.0
 10
21.877
 20
-10.861
 30
0.0
 10
23.7202
 20
-10.861
 30
0.0
 10
23.7202
 20
-10.861
 30
0.0
  0
SPLINE
  5
7D
330
1F
100
AcDbEntity
  8
AXIS
 62
   250
100
AcDbSpline
210
0.0
220
0.0
230
1.0
 70
    24
 71
     3
 72
     8
 73
     4
 74
     0
 42
0.0000000001
 43
0.0000000001
 40
0.0
 40
0.0
 40
0.0
 40
0.0
 40
1.0
 40
1.0
 40
1.0
 40
1.0
 10
21.5696
 20
-10.5301
 30
0.0
 10
21.5696
 20
-10.5301
 30
0.0
 10
21.5696
 20
9.9839
 30
0.0
 10
21.5696
 20
9.9839
 30
0.0
  0
SPLINE
  5
7E
330
1F
100
AcDbEntity
  8
AXIS
 62
   250
100
AcDbSpline
210
0.0
220
0.0
230
1.0
 70
    24
 71
     3
 72
     8
 73
     4
 74
     0
 42
0.0000000001
 43
0.0000000001
 40
0.0
 40
0.0
 40
0.0
 40
0.0
 40
1.0
 40
1.0
 40
1.0
 40
1.0
 10
21.9004
 20
10.3147
 30
0.0
 10
21.9004
 20
10.3147
 30
0.0
 10
21.9004
 20
-10.861
 30
0.0
 10
21.9004
 20
-10.861
 30
0.0
  0
SPLINE
  5
7F
330
1F
100
AcDbEntity
  8
AXIS
 62
   250
100
AcDbSpline
210
0.0
220
0.0
230
1.0
 70
    24
 71
     3
 72
     8
 73
     4
 74
     0
 42
0.0000000001
 43
0.0000000001
 40
0.0
 40
0.0
 40
0.0
 40
0.0
 40
1.0
 40
1.0
 40
1.0
 40
1.0
 10
23.7202
 20
-13.9215
 30
0.0
 10
23.7202
 20
-13.9215
 30
0.0
 10
23.7202
 20
13.3753
 30
0.0
 10
23.7202
 20
13.3753
 30
0.0
  0
SPLINE
  5
80
330
1F
100
AcDbEntity
  8
AXIS
 62
   250
100
AcDbSpline
210
0.0
220
0.0
230
1.0
 70
    24
 71
     3
 72
     8
 73
     4
 74
     0
 42
0.0000000001
 43
0.0000000001
 40
0.0
 40
0.0
 40
0.0
 40
0.0
 40
1.0
 40
1.0
 40
1.0
 40
1.0
 10
24.2165
 20
-13.9215
 30
0.0
 10
24.2165
 20
-13.9215
 30
0.0
 10
24.2165
 20
13.3753
 30
0.0
 10
24.2165
 20
13.3753
 30
0.0
  0
SPLINE
  5
81
330
1F
100
AcDbEntity
  8
AXIS
 62
   250
100
AcDbSpline
210
0.0
220
0.0
230
1.0
 70
    24
 71
     3
 72
     8
 73
     4
 74
     0
 42
0.0000000001
 43
0.0000000001
 40
0.0
 40
0.0
 40
0.0
 40
0.0
 40
1.0
 40
1.0
 40
1.0
 40
1.0
 10
24.5474
 20
13.2874
 30
0.0
 10
24.5474
 20
13.2874
 30
0.0
 10
24.5474
 20
-13.9205
 30
0.0
 10
24.5474
 20
-13.9205
 30
0.0
  0
SPLINE
  5
82
330
1F
100
AcDbEntity
  8
AXIS
 62
   250
100
AcDbSpline
210
0.0
220
0.0
230
1.0
 70
    24
 71
     3
 72
     8
 73
     4
 74
     0
 42
0.0000000001
 43
0.0000000001
 40
0.0
 40
0.0
 40
0.0
 40
0.0
 40
1.0
 40
1.0
 40
1.0
 40
1.0
 10
21.9004
 20
10.3147
 30
0.0
 10
21.9004
 20
10.3147
 30
0.0
 10
23.7202
 20
10.3147
 30
0.0
 10
23.7202
 20
10.3147
 30
0.0
  0
SPLINE
  5
83
330
1F
100
AcDbEntity
  8
AXIS
 62
   250
100
AcDbSpline
210
0.0
220
0.0
230
1.0
 70
    24
 71
     3
 72
     8
 73
     4
 74
     0
 42
0.0000000001
 43
0.0000000001
 40
0.0
 40
0.0
 40
0.0
 40
0.0
 40
1.0
 40
1.0
 40
1.0
 40
1.0
 10
24.2165
 20
12.5481
 30
0.0
 10
24.2165
 20
12.5481
 30
0.0
 10
23.7202
 20
12.5481
 30
0.0
 10
23.7202
 20
12.5481
 30
0.0
  0
SPLINE
  5
84
330
1F
100
AcDbEntity
  8
AXIS
 62
   250
100
AcDbSpline
210
0.0
220
0.0
230
1.0
 70
    24
 71
     3
 72
     8
 73
     4
 74
     0
 42
0.0000000001
 43
0.0000000001
 40
0.0
 40
0.0
 40
0.0
 40
0.0
 40
1.0
 40
1.0
 40
1.0
 40
1.0
 10
23.7202
 20
13.3753
 30
0.0
 10
23.7202
 20
13.3753
 30
0.0
 10
24.5474
 20
13.3753
 30
0.0
 10
24.5474
 20
13.3753
 30
0.0
  0
SPLINE
  5
85
330
1F
100
AcDbEntity
  8
AXIS
 62
   250
100
AcDbSpline
210
0.0
220
0.0
230
1.0
 70
     8
 71
     3
 72
     8
 73
     4
 74
     0
 42
0.0000000001
 43
0.0000000001
 40
0.0
 40
0.0
 40
0.0
 40
0.0
 40
1.0
 40
1.0
 40
1.0
 40
1.0
 10
21.5696
 20
-10.5301
 30
0.0
 10
21.5696
 20
-10.7128
 30
0.0
 10
21.7177
 20
-10.861
 30
0.0
 10
21.9004
 20
-10.861
 30
0.0
  0
SPLINE
  5
86
330
1F
100
AcDbEntity
  8
AXIS
 62
   250
100
AcDbSpline
210
0.0
220
0.0
230
1.0
 70
     8
 71
     3
 72
     8
 73
     4
 74
     0
 42
0.0000000001
 43
0.0000000001
 40
0.0
 40
0.0
 40
0.0
 40
0.0
 40
1.0
 40
1.0
 40
1.0
 40
1.0
 10
21.9004
 20
10.3147
 30
0.0
 10
21.7177
 20
10.3147
 30
0.0
 10
21.5696
 20
10.1666
 30
0.0
 10
21.5696
 20
9.9839
 30
0.0
  0
SPLINE
  5
87
330
1F
100
AcDbEntity
  8
AXIS
 62
   250
100
AcDbSpline
210
0.0
220
0.0
230
1.0
 70
    11
 71
     3
 72
    20
 73
    16
 74
     0
 42
0.0000000001
 43
0.0000000001
 40
0.0
 40
0.0
 40
0.0
 40
0.0
 40
0.2
 40
0.2
 40
0.2
 40
0.2
 40
0.4
 40
0.4
 40
0.4
 40
0.4
 40
0.6
 40
0.6
 40
0.6
 40
0.6
 40
1.0
 40
1.0
 40
1.0
 40
1.0
 10
28.2632
 20
-13.9009
 30
0.0
 10
28.2632
 20
-13.9009
 30
0.0
 10
28.2632
 20
13.2689
 30
0.0
 10
28.2632
 20
13.2689
 30
0.0
 10
28.2632
 20
13.2689
 30
0.0
 10
28.2632
 20
13.2689
 30
0.0
 10
28.5643
 20
13.2689
 30
0.0
 10
28.5643
 20
13.2689
 30
0.0
 10
28.5643
 20
13.2689
 30
0.0
 10
28.5643
 20
13.2689
 30
0.0
 10
28.5643
 20
-13.9009
 30
0.0
 10
28.5643
 20
-13.9009
 30
0.0
 10
28.5643
 20
-13.9009
 30
0.0
 10
28.5643
 20
-13.9009
 30
0.0
 10
28.2632
 20
-13.9009
 30
0.0
 10
28.2632
 20
-13.9009
 30
0.0
  0
SPLINE
  5
88
330
1F
100
AcDbEntity
  8
AXIS
 62
   250
100
AcDbSpline
210
0.0
220
0.0
230
1.0
 70
    24
 71
     3
 72
     8
 73
     4
 74
     0
 42
0.0000000001
 43
0.0000000001
 40
0.0
 40
0.0
 40
0.0
 40
0.0
 40
1.0
 40
1.0
 40
1.0
 40
1.0
 10
24.5646
 20
-8.5408
 30
0.0
 10
24.5646
 20
-8.5408
 30
0.0
 10
28.2506
 20
-8.5408
 30
0.0
 10
28.2506
 20
-8.5408
 30
0.0
  0
SPLINE
  5
89
330
1F
100
AcDbEntity
  8
AXIS
 62
   250
100
AcDbSpline
210
0.0
220
0.0
230
1.0
 70
    24
 71
     3
 72
     8
 73
     4
 74
     0
 42
0.0000000001
 43
0.0000000001
 40
0.0
 40
0.0
 40
0.0
 40
0.0
 40
1.0
 40
1.0
 40
1.0
 40
1.0
 10
24.5478
 20
7.9775
 30
0.0
 10
24.5478
 20
7.9775
 30
0.0
 10
28.2338
 20
7.9775
 30
0.0
 10
28.2338
 20
7.9775
 30
0.0
  0
SPLINE
  5
8A
330
1F
100
AcDbEntity
  8
AXIS
 62
   250
100
AcDbSpline
210
0.0
220
0.0
230
1.0
 70
    24
 71
     3
 72
     8
 73
     4
 74
     0
 42
0.0000000001
 43
0.0000000001
 40
0.0
 40
0.0
 40
0.0
 40
0.0
 40
1.0
 40
1.0
 40
1.0
 40
1.0
 10
28.0364
 20
-8.507
 30
0.0
 10
28.0364
 20
-8.507
 30
0.0
 10
28.0364
 20
7.951
 30
0.0
 10
28.0364
 20
7.951
 30
0.0
  0
SPLINE
  5
8B
330
1F
100
AcDbEntity
  8
AXIS
 62
   250
100
AcDbSpline
210
0.0
220
0.0
230
1.0
 70
    11
 71
     3
 72
    20
 73
    16
 74
     0
 42
0.0000000001
 43
0.0000000001
 40
0.0
 40
0.0
 40
0.0
 40
0.0
 40
0.2
 40
0.2
 40
0.2
 40
0.2
 40
0.4
 40
0.4
 40
0.4
 40
0.4
 40
0.6
 40
0.6
 40
0.6
 40
0.6
 40
1.0
 40
1.0
 40
1.0
 40
1.0
 10
20.6032
 20
-18.1044
 30
0.0
 10
20.6032
 20
-18.1044
 30
0.0
 10
23.6047
 20
-18.528
 30
0.0
 10
23.6047
 20
-18.528
 30
0.0
 10
23.6047
 20
-18.528
 30
0.0
 10
23.6047
 20
-18.528
 30
0.0
 10
23.6047
 20
-18.6221
 30
0.0
 10
23.6047
 20
-18.6221
 30
0.0
 10
23.6047
 20
-18.6221
 30
0.0
 10
23.6047
 20
-18.6221
 30
0.0
 10
20.6032
 20
-19.0739
 30
0.0
 10
20.6032
 20
-19.0739
 30
0.0
 10
20.6032
 20
-19.0739
 30
0.0
 10
20.6032
 20
-19.0739
 30
0.0
 10
20.6032
 20
-18.1044
 30
0.0
 10
20.6032
 20
-18.1044
 30
0.0
  0
SPLINE
  5
8C
330
1F
100
AcDbEntity
  8
AXIS
 62
   250
100
AcDbSpline
210
0.0
220
0.0
230
1.0
 70
    11
 71
     3
 72
    20
 73
    16
 74
     0
 42
0.0000000001
 43
0.0000000001
 40
0.0
 40
0.0
 40
0.0
 40
0.0
 40
0.2
 40
0.2
 40
0.2
 40
0.2
 40
0.4
 40
0.4
 40
0.4
 40
0.4
 40
0.6
 40
0.6
 40
0.6
 40
0.6
 40
1.0
 40
1.0
 40
1.0
 40
1.0
 10
31.6828
 20
-19.0722
 30
0.0
 10
31.6828
 20
-19.0722
 30
0.0
 10
28.6822
 20
-18.6487
 30
0.0
 10
28.6822
 20
-18.6487
 30
0.0
 10
28.6822
 20
-18.6487
 30
0.0
 10
28.6822
 20
-18.6487
 30
0.0
 10
28.6822
 20
-18.5547
 30
0.0
 10
28.6822
 20
-18.5547
 30
0.0
 10
28.6822
 20
-18.5547
 30
0.0
 10
28.6822
 20
-18.5547
 30
0.0
 10
31.6828
 20
-18.103
 30
0.0
 10
31.6828
 20
-18.103
 30
0.0
 10
31.6828
 20
-18.103
 30
0.0
 10
31.6828
 20
-18.103
 30
0.0
 10
31.6828
 20
-19.0722
 30
0.0
 10
31.6828
 20
-19.0722
 30
0.0
  0
SPLINE
  5
8D
330
1F
100
AcDbEntity
  8
AXIS
 62
   250
100
AcDbSpline
210
0.0
220
0.0
230
1.0
 70
    24
 71
     3
 72
     8
 73
     4
 74
     0
 42
0.0000000001
 43
0.0000000001
 40
0.0
 40
0.0
 40
0.0
 40
0.0
 40
1.0
 40
1.0
 40
1.0
 40
1.0
 10
28.6613
 20
-14.2112
 30
0.0
 10
28.6613
 20
-14.2112
 30
0.0
 10
28.6613
 20
-18.9737
 30
0.0
 10
28.6613
 20
-18.9737
 30
0.0
  0
SPLINE
  5
8E
330
1F
100
AcDbEntity
  8
AXIS
 62
   250
100
AcDbSpline
210
0.0
220
0.0
230
1.0
 70
    24
 71
     3
 72
     8
 73
     4
 74
     0
 42
0.0000000001
 43
0.0000000001
 40
0.0
 40
0.0
 40
0.0
 40
0.0
 40
1.0
 40
1.0
 40
1.0
 40
1.0
 10
23.6512
 20
-14.3044
 30
0.0
 10
23.6512
 20
-14.3044
 30
0.0
 10
23.6512
 20
-19.0669
 30
0.0
 10
23.6512
 20
-19.0669
 30
0.0
  0
SPLINE
  5
8F
330
1F
100
AcDbEntity
  8
AXIS
 62
   250
100
AcDbSpline
210
0.0
220
0.0
230
1.0
 70
    11
 71
     3
 72
    92
 73
    88
 74
     0
 42
0.0000000001
 43
0.0000000001
 40
0.0
 40
0.0
 40
0.0
 40
0.0
 40
0.0434782608695652
 40
0.0434782608695652
 40
0.0434782608695652
 40
0.0434782608695652
 40
0.0869565217391304
 40
0.0869565217391304
 40
0.0869565217391304
 40
0.0869565217391304
 40
0.1304347826086956
 40
0.1304347826086956
 40
0.1304347826086956
 40
0.1304347826086956
 40
0.1739130434782609
 40
0.1739130434782609
 40
0.1739130434782609
 40
0.1739130434782609
 40
0.2173913043478261
 40
0.2173913043478261
 40
0.2173913043478261
 40
0.2173913043478261
 40
0.2608695652173913
 40
0.2608695652173913
 40
0.2608695652173913
 40
0.2608695652173913
 40
0.3043478260869565
 40
0.3043478260869565
 40
0.3043478260869565
 40
0.3043478260869565
 40
0.3478260869565217
 40
0.3478260869565217
 40
0.3478260869565217
 40
0.3478260869565217
 40
0.391304347826087
 40
0.391304347826087
 40
0.391304347826087
 40
0.391304347826087
 40
0.4347826086956522
 40
0.4347826086956522
 40
0.4347826086956522
 40
0.4347826086956522
 40
0.4782608695652174
 40
0.4782608695652174
 40
0.4782608695652174
 40
0.4782608695652174
 40
0.5217391304347826
 40
0.5217391304347826
 40
0.5217391304347826
 40
0.5217391304347826
 40
0.5652173913043478
 40
0.5652173913043478
 40
0.5652173913043478
 40
0.5652173913043478
 40
0.6086956521739131
 40
0.6086956521739131
 40
0.6086956521739131
 40
0.6086956521739131
 40
0.6521739130434783
 40
0.6521739130434783
 40
0.6521739130434783
 40
0.6521739130434783
 40
0.6956521739130435
 40
0.6956521739130435
 40
0.6956521739130435
 40
0.6956521739130435
 40
0.7391304347826086
 40
0.7391304347826086
 40
0.7391304347826086
 40
0.7391304347826086
 40
0.782608695652174
 40
0.782608695652174
 40
0.782608695652174
 40
0.782608695652174
 40
0.8260869565217391
 40
0.8260869565217391
 40
0.8260869565217391
 40
0.8260869565217391
 40
0.8695652173913043
 40
0.8695652173913043
 40
0.8695652173913043
 40
0.8695652173913043
 40
0.9130434782608695
 40
0.9130434782608695
 40
0.9130434782608695
 40
0.9130434782608695
 40
1.0
 40
1.0
 40
1.0
 40
1.0
 10
26.0052
 20
-17.9706
 30
0.0
 10
26.0052
 20
-17.9706
 30
0.0
 10
26.0052
 20
-18.2091
 30
0.0
 10
26.0052
 20
-18.2091
 30
0.0
 10
26.0052
 20
-18.2091
 30
0.0
 10
26.0052
 20
-18.2091
 30
0.0
 10
24.6698
 20
-18.2091
 30
0.0
 10
24.6698
 20
-18.2091
 30
0.0
 10
24.6698
 20
-18.2091
 30
0.0
 10
24.6679
 20
-18.1494
 30
0.0
 10
24.6773
 20
-18.092
 30
0.0
 10
24.6985
 20
-18.0369
 30
0.0
 10
24.6985
 20
-18.0369
 30
0.0
 10
24.7324
 20
-17.9457
 30
0.0
 10
24.7869
 20
-17.8563
 30
0.0
 10
24.8617
 20
-17.7679
 30
0.0
 10
24.8617
 20
-17.7679
 30
0.0
 10
24.937
 20
-17.6799
 30
0.0
 10
25.0452
 20
-17.5779
 30
0.0
 10
25.1863
 20
-17.4622
 30
0.0
 10
25.1863
 20
-17.4622
 30
0.0
 10
25.4059
 20
-17.282
 30
0.0
 10
25.5546
 20
-17.1395
 30
0.0
 10
25.6317
 20
-17.0341
 30
0.0
 10
25.6317
 20
-17.0341
 30
0.0
 10
25.7088
 20
-16.9292
 30
0.0
 10
25.7474
 20
-16.8295
 30
0.0
 10
25.7474
 20
-16.7359
 30
0.0
 10
25.7474
 20
-16.7359
 30
0.0
 10
25.7474
 20
-16.6376
 30
0.0
 10
25.7121
 20
-16.5548
 30
0.0
 10
25.6421
 20
-16.4871
 30
0.0
 10
25.6421
 20
-16.4871
 30
0.0
 10
25.5715
 20
-16.4198
 30
0.0
 10
25.4798
 20
-16.386
 30
0.0
 10
25.3669
 20
-16.386
 30
0.0
 10
25.3669
 20
-16.386
 30
0.0
 10
25.2474
 20
-16.386
 30
0.0
 10
25.1519
 20
-16.4217
 30
0.0
 10
25.0804
 20
-16.4937
 30
0.0
 10
25.0804
 20
-16.4937
 30
0.0
 10
25.0085
 20
-16.5652
 30
0.0
 10
24.9723
 20
-16.6644
 30
0.0
 10
24.9713
 20
-16.7909
 30
0.0
 10
24.9713
 20
-16.7909
 30
0.0
 10
24.9713
 20
-16.7909
 30
0.0
 10
24.7164
 20
-16.7651
 30
0.0
 10
24.7164
 20
-16.7651
 30
0.0
 10
24.7164
 20
-16.7651
 30
0.0
 10
24.7338
 20
-16.5746
 30
0.0
 10
24.7996
 20
-16.4297
 30
0.0
 10
24.9135
 20
-16.33
 30
0.0
 10
24.9135
 20
-16.33
 30
0.0
 10
25.0273
 20
-16.2303
 30
0.0
 10
25.1806
 20
-16.1804
 30
0.0
 10
25.3725
 20
-16.1804
 30
0.0
 10
25.3725
 20
-16.1804
 30
0.0
 10
25.5663
 20
-16.1804
 30
0.0
 10
25.7197
 20
-16.2345
 30
0.0
 10
25.8326
 20
-16.3417
 30
0.0
 10
25.8326
 20
-16.3417
 30
0.0
 10
25.9459
 20
-16.4495
 30
0.0
 10
26.0024
 20
-16.5826
 30
0.0
 10
26.0024
 20
-16.7416
 30
0.0
 10
26.0024
 20
-16.7416
 30
0.0
 10
26.0024
 20
-16.8225
 30
0.0
 10
25.9859
 20
-16.902
 30
0.0
 10
25.9525
 20
-16.98
 30
0.0
 10
25.9525
 20
-16.98
 30
0.0
 10
25.9196
 20
-17.0581
 30
0.0
 10
25.8645
 20
-17.1404
 30
0.0
 10
25.7879
 20
-17.2265
 30
0.0
 10
25.7879
 20
-17.2265
 30
0.0
 10
25.7112
 20
-17.3131
 30
0.0
 10
25.5837
 20
-17.4316
 30
0.0
 10
25.4055
 20
-17.5821
 30
0.0
 10
25.4055
 20
-17.5821
 30
0.0
 10
25.2568
 20
-17.7072
 30
0.0
 10
25.1613
 20
-17.7919
 30
0.0
 10
25.119
 20
-17.8366
 30
0.0
 10
25.119
 20
-17.8366
 30
0.0
 10
25.0767
 20
-17.8808
 30
0.0
 10
25.0419
 20
-17.9255
 30
0.0
 10
25.0141
 20
-17.9706
 30
0.0
 10
25.0141
 20
-17.9706
 30
0.0
 10
25.0141
 20
-17.9706
 30
0.0
 10
26.0052
 20
-17.9706
 30
0.0
 10
26.0052
 20
-17.9706
 30
0.0
  0
SPLINE
  5
90
330
1F
100
AcDbEntity
  8
AXIS
 62
   250
100
AcDbSpline
210
0.0
220
0.0
230
1.0
 70
    11
 71
     3
 72
    92
 73
    88
 74
     0
 42
0.0000000001
 43
0.0000000001
 40
0.0
 40
0.0
 40
0.0
 40
0.0
 40
0.0434782608695652
 40
0.0434782608695652
 40
0.0434782608695652
 40
0.0434782608695652
 40
0.0869565217391304
 40
0.0869565217391304
 40
0.0869565217391304
 40
0.0869565217391304
 40
0.1304347826086956
 40
0.1304347826086956
 40
0.1304347826086956
 40
0.1304347826086956
 40
0.1739130434782609
 40
0.1739130434782609
 40
0.1739130434782609
 40
0.1739130434782609
 40
0.2173913043478261
 40
0.2173913043478261
 40
0.2173913043478261
 40
0.2173913043478261
 40
0.2608695652173913
 40
0.2608695652173913
 40
0.2608695652173913
 40
0.2608695652173913
 40
0.3043478260869565
 40
0.3043478260869565
 40
0.3043478260869565
 40
0.3043478260869565
 40
0.3478260869565217
 40
0.3478260869565217
 40
0.3478260869565217
 40
0.3478260869565217
 40
0.391304347826087
 40
0.391304347826087
 40
0.391304347826087
 40
0.391304347826087
 40
0.4347826086956522
 40
0.4347826086956522
 40
0.4347826086956522
 40
0.4347826086956522
 40
0.4782608695652174
 40
0.4782608695652174
 40
0.4782608695652174
 40
0.4782608695652174
 40
0.5217391304347826
 40
0.5217391304347826
 40
0.5217391304347826
 40
0.5217391304347826
 40
0.5652173913043478
 40
0.5652173913043478
 40
0.5652173913043478
 40
0.5652173913043478
 40
0.6086956521739131
 40
0.6086956521739131
 40
0.6086956521739131
 40
0.6086956521739131
 40
0.6521739130434783
 40
0.6521739130434783
 40
0.6521739130434783
 40
0.6521739130434783
 40
0.6956521739130435
 40
0.6956521739130435
 40
0.6956521739130435
 40
0.6956521739130435
 40
0.7391304347826086
 40
0.7391304347826086
 40
0.7391304347826086
 40
0.7391304347826086
 40
0.782608695652174
 40
0.782608695652174
 40
0.782608695652174
 40
0.782608695652174
 40
0.8260869565217391
 40
0.8260869565217391
 40
0.8260869565217391
 40
0.8260869565217391
 40
0.8695652173913043
 40
0.8695652173913043
 40
0.8695652173913043
 40
0.8695652173913043
 40
0.9130434782608695
 40
0.9130434782608695
 40
0.9130434782608695
 40
0.9130434782608695
 40
1.0
 40
1.0
 40
1.0
 40
1.0
 10
26.3081
 20
-17.742
 30
0.0
 10
26.3081
 20
-17.742
 30
0.0
 10
26.5466
 20
-17.7199
 30
0.0
 10
26.5466
 20
-17.7199
 30
0.0
 10
26.5466
 20
-17.7199
 30
0.0
 10
26.5668
 20
-17.8319
 30
0.0
 10
26.6054
 20
-17.9132
 30
0.0
 10
26.6623
 20
-17.964
 30
0.0
 10
26.6623
 20
-17.964
 30
0.0
 10
26.7192
 20
-18.0144
 30
0.0
 10
26.7921
 20
-18.0398
 30
0.0
 10
26.8815
 20
-18.0398
 30
0.0
 10
26.8815
 20
-18.0398
 30
0.0
 10
26.9577
 20
-18.0398
 30
0.0
 10
27.0244
 20
-18.0224
 30
0.0
 10
27.0818
 20
-17.9871
 30
0.0
 10
27.0818
 20
-17.9871
 30
0.0
 10
27.1392
 20
-17.9523
 30
0.0
 10
27.1863
 20
-17.9057
 30
0.0
 10
27.2229
 20
-17.8474
 30
0.0
 10
27.2229
 20
-17.8474
 30
0.0
 10
27.2601
 20
-17.7891
 30
0.0
 10
27.2907
 20
-17.71
 30
0.0
 10
27.3156
 20
-17.6113
 30
0.0
 10
27.3156
 20
-17.6113
 30
0.0
 10
27.3401
 20
-17.512
 30
0.0
 10
27.3528
 20
-17.4109
 30
0.0
 10
27.3528
 20
-17.3079
 30
0.0
 10
27.3528
 20
-17.3079
 30
0.0
 10
27.3528
 20
-17.2971
 30
0.0
 10
27.3523
 20
-17.2801
 30
0.0
 10
27.3514
 20
-17.2585
 30
0.0
 10
27.3514
 20
-17.2585
 30
0.0
 10
27.3015
 20
-17.337
 30
0.0
 10
27.2338
 20
-17.4015
 30
0.0
 10
27.1482
 20
-17.4504
 30
0.0
 10
27.1482
 20
-17.4504
 30
0.0
 10
27.0621
 20
-17.4998
 30
0.0
 10
26.9689
 20
-17.5242
 30
0.0
 10
26.8692
 20
-17.5242
 30
0.0
 10
26.8692
 20
-17.5242
 30
0.0
 10
26.7018
 20
-17.5242
 30
0.0
 10
26.5602
 20
-17.4636
 30
0.0
 10
26.4445
 20
-17.3422
 30
0.0
 10
26.4445
 20
-17.3422
 30
0.0
 10
26.3288
 20
-17.2209
 30
0.0
 10
26.2709
 20
-17.0614
 30
0.0
 10
26.2709
 20
-16.8629
 30
0.0
 10
26.2709
 20
-16.8629
 30
0.0
 10
26.2709
 20
-16.6578
 30
0.0
 10
26.3311
 20
-16.4932
 30
0.0
 10
26.452
 20
-16.3681
 30
0.0
 10
26.452
 20
-16.3681
 30
0.0
 10
26.5729
 20
-16.243
 30
0.0
 10
26.7244
 20
-16.1804
 30
0.0
 10
26.9064
 20
-16.1804
 30
0.0
 10
26.9064
 20
-16.1804
 30
0.0
 10
27.0376
 20
-16.1804
 30
0.0
 10
27.1576
 20
-16.2162
 30
0.0
 10
27.2667
 20
-16.2867
 30
0.0
 10
27.2667
 20
-16.2867
 30
0.0
 10
27.3753
 20
-16.3573
 30
0.0
 10
27.4581
 20
-16.4584
 30
0.0
 10
27.5146
 20
-16.5892
 30
0.0
 10
27.5146
 20
-16.5892
 30
0.0
 10
27.571
 20
-16.7199
 30
0.0
 10
27.5992
 20
-16.9095
 30
0.0
 10
27.5992
 20
-17.1578
 30
0.0
 10
27.5992
 20
-17.1578
 30
0.0
 10
27.5992
 20
-17.4156
 30
0.0
 10
27.5715
 20
-17.6211
 30
0.0
 10
27.5155
 20
-17.7745
 30
0.0
 10
27.5155
 20
-17.7745
 30
0.0
 10
27.4591
 20
-17.9274
 30
0.0
 10
27.3758
 20
-18.0435
 30
0.0
 10
27.2653
 20
-18.1235
 30
0.0
 10
27.2653
 20
-18.1235
 30
0.0
 10
27.1543
 20
-18.2035
 30
0.0
 10
27.0249
 20
-18.2434
 30
0.0
 10
26.8758
 20
-18.2434
 30
0.0
 10
26.8758
 20
-18.2434
 30
0.0
 10
26.7178
 20
-18.2434
 30
0.0
 10
26.5889
 20
-18.1997
 30
0.0
 10
26.4887
 20
-18.1117
 30
0.0
 10
26.4887
 20
-18.1117
 30
0.0
 10
26.3885
 20
-18.0242
 30
0.0
 10
26.3283
 20
-17.901
 30
0.0
 10
26.3081
 20
-17.742
 30
0.0
  0
SPLINE
  5
91
330
1F
100
AcDbEntity
  8
AXIS
 62
   250
100
AcDbSpline
210
0.0
220
0.0
230
1.0
 70
    11
 71
     3
 72
    36
 73
    32
 74
     0
 42
0.0000000001
 43
0.0000000001
 40
0.0
 40
0.0
 40
0.0
 40
0.0
 40
0.1111111111111111
 40
0.1111111111111111
 40
0.1111111111111111
 40
0.1111111111111111
 40
0.2222222222222222
 40
0.2222222222222222
 40
0.2222222222222222
 40
0.2222222222222222
 40
0.3333333333333333
 40
0.3333333333333333
 40
0.3333333333333333
 40
0.3333333333333333
 40
0.4444444444444444
 40
0.4444444444444444
 40
0.4444444444444444
 40
0.4444444444444444
 40
0.5555555555555556
 40
0.5555555555555556
 40
0.5555555555555556
 40
0.5555555555555556
 40
0.6666666666666666
 40
0.6666666666666666
 40
0.6666666666666666
 40
0.6666666666666666
 40
0.7777777777777778
 40
0.7777777777777778
 40
0.7777777777777778
 40
0.7777777777777778
 40
1.0
 40
1.0
 40
1.0
 40
1.0
 10
27.3236
 20
-16.8502
 30
0.0
 10
27.3236
 20
-16.7082
 30
0.0
 10
27.286
 20
-16.5948
 30
0.0
 10
27.2102
 20
-16.5115
 30
0.0
 10
27.2102
 20
-16.5115
 30
0.0
 10
27.134
 20
-16.4278
 30
0.0
 10
27.0433
 20
-16.386
 30
0.0
 10
26.9365
 20
-16.386
 30
0.0
 10
26.9365
 20
-16.386
 30
0.0
 10
26.8264
 20
-16.386
 30
0.0
 10
26.7305
 20
-16.4311
 30
0.0
 10
26.6486
 20
-16.521
 30
0.0
 10
26.6486
 20
-16.521
 30
0.0
 10
26.5668
 20
-16.6113
 30
0.0
 10
26.5259
 20
-16.7279
 30
0.0
 10
26.5259
 20
-16.8709
 30
0.0
 10
26.5259
 20
-16.8709
 30
0.0
 10
26.5259
 20
-16.9998
 30
0.0
 10
26.5649
 20
-17.1042
 30
0.0
 10
26.6425
 20
-17.1846
 30
0.0
 10
26.6425
 20
-17.1846
 30
0.0
 10
26.7201
 20
-17.2651
 30
0.0
 10
26.8156
 20
-17.3051
 30
0.0
 10
26.9294
 20
-17.3051
 30
0.0
 10
26.9294
 20
-17.3051
 30
0.0
 10
27.0447
 20
-17.3051
 30
0.0
 10
27.1387
 20
-17.2651
 30
0.0
 10
27.2126
 20
-17.1846
 30
0.0
 10
27.2126
 20
-17.1846
 30
0.0
 10
27.2869
 20
-17.1042
 30
0.0
 10
27.3236
 20
-16.9927
 30
0.0
 10
27.3236
 20
-16.8502
 30
0.0
  0
SPLINE
  5
92
330
1F
100
AcDbEntity
  8
AXIS
 62
   250
100
AcDbSpline
210
0.0
220
0.0
230
1.0
 70
    24
 71
     3
 72
     8
 73
     4
 74
     0
 42
0.0000000001
 43
0.0000000001
 40
0.0
 40
0.0
 40
0.0
 40
0.0
 40
1.0
 40
1.0
 40
1.0
 40
1.0
 10
32.6793
 20
-18.5784
 30
0.0
 10
32.6793
 20
-18.5784
 30
0.0
 10
19.406
 20
-18.5784
 30
0.0
 10
19.406
 20
-18.5784
 30
0.0
  0
ENDSEC
  0
SECTION
  2
OBJECTS
  0
DICTIONARY
  5
C
330
0
100
AcDbDictionary
  3
ACAD_GROUP
350
D
  3
ACAD_LAYOUT
350
1A
  3
ACAD_MATERIAL
350
3B
  3
ACAD_MLEADERSTYLE
350
B5
  3
ACAD_MLINESTYLE
350
17
  3
ACAD_PLOTSETTINGS
350
19
  3
ACAD_VISUALSTYLE
350
2A
  3
ACDBHEADERROUNDTRIPXREC
350
93
  3
ACDBVARIABLEDICTIONARY
350
B3
  0
DICTIONARY
  5
D
102
{ACAD_REACTORS
330
C
102
}
330
C
100
AcDbDictionary
  0
DICTIONARY
  5
1A
102
{ACAD_REACTORS
330
C
102
}
330
C
100
AcDbDictionary
  0
DICTIONARY
  5
3B
102
{ACAD_REACTORS
330
C
102
}
330
C
100
AcDbDictionary
  3
BYBLOCK
350
3D
  3
BYLAYER
350
3C
  3
GLOBAL
350
3E
  0
DICTIONARY
  5
B5
102
{ACAD_REACTORS
330
C
102
}
330
C
100
AcDbDictionary
  0
DICTIONARY
  5
17
102
{ACAD_REACTORS
330
C
102
}
330
C
100
AcDbDictionary
  3
STANDARD
350
18
  0
DICTIONARY
  5
19
102
{ACAD_REACTORS
330
C
102
}
330
C
100
AcDbDictionary
  0
DICTIONARY
  5
2A
102
{ACAD_REACTORS
330
C
102
}
330
C
100
AcDbDictionary
  3
2DWIREFRAME
350
2F
  3
3D_HIDDEN
350
31
  3
3DWIREFRAME
350
30
  3
BASIC
350
32
  3
BRIGHTEN
350
36
  3
COLORCHANGE
350
3A
  3
CONCEPTUAL
350
34
  3
DIM
350
35
  3
FACEPATTERN
350
39
  3
FLAT
350
2B
  3
FLATWITHEDGES
350
2C
  3
GOURAUD
350
2D
  3
GOURAUDWITHEDGES
350
2E
  3
LINEPATTERN
350
38
  3
REALISTIC
350
33
  3
THICKEN
350
37
  0
DICTIONARY
  5
93
102
{ACAD_REACTORS
330
C
102
}
330
C
100
AcDbDictionary
  3
CEPSNTYPE
350
9C
  3
DIMSTYLEDATA
350
B2
  3
FINGERPRINTGUID
350
9D
  3
HYPERLINKBASE
350
96
  3
INSUNITS
350
9B
  3
LAYOUTDICT
350
98
  3
LWETCUNION
350
9A
  3
PLOTSETDICT
350
99
  3
PSVPSCALE
350
9F
  3
PUCSBASE
350
A2
  3
PUCSORGBACK
350
A8
  3
PUCSORGBOTTOM
350
A4
  3
PUCSORGFRONT
350
A7
  3
PUCSORGLEFT
350
A5
  3
PUCSORGRIGHT
350
A6
  3
PUCSORGTOP
350
A3
  3
PUCSORTHOREF
350
A0
  3
PUCSORTHOVIEW
350
A1
  3
STYLESHEET
350
97
  3
TSTACKALIGN
350
94
  3
TSTACKSIZE
350
95
  3
UCSBASE
350
AB
  3
UCSORGBACK
350
B1
  3
UCSORGBOTTOM
350
AD
  3
UCSORGFRONT
350
B0
  3
UCSORGLEFT
350
AE
  3
UCSORGRIGHT
350
AF
  3
UCSORGTOP
350
AC
  3
UCSORTHOREF
350
A9
  3
UCSORTHOVIEW
350
AA
  3
VERSIONGUID
350
9E
  0
DICTIONARY
  5
B3
102
{ACAD_REACTORS
330
C
102
}
330
C
100
AcDbDictionary
  3
DIMASSOC
350
B6
  3
HIDETEXT
350
B7
  0
MATERIAL
  5
3D
102
{ACAD_REACTORS
330
3B
102
}
102
{ACAD_XDICTIONARY
360
BA
102
}
330
3B
100
AcDbMaterial
  1
ByBlock
  0
MATERIAL
  5
3C
102
{ACAD_REACTORS
330
3B
102
}
102
{ACAD_XDICTIONARY
360
B8
102
}
330
3B
100
AcDbMaterial
  1
ByLayer
  0
MATERIAL
  5
3E
102
{ACAD_REACTORS
330
3B
102
}
102
{ACAD_XDICTIONARY
360
BC
102
}
330
3B
100
AcDbMaterial
  1
Global
  0
MLINESTYLE
  5
18
102
{ACAD_REACTORS
330
17
102
}
330
17
100
AcDbMlineStyle
  2
Standard
 70
     0
  3

 62
   256
 51
90.0
 52
90.0
 71
     2
 49
0.5
 62
   256
  6
BYLAYER
 49
-0.5
 62
   256
  6
BYLAYER
  0
ACAD_PROXY_OBJECT
  5
2F
102
{ACAD_REACTORS
330
2A
102
}
330
2A
100
AcDbProxyObject
 90
      499
 91
      501
 93
      436
310
42CC9915DA5C99599C985B595049028333333333333E3BF0000000000000FB0107901411070040501600405405064090741402480A0340
1001
ACAD
1000
AcDbSavedByObjectVersion
1070
     0
  0
ACAD_PROXY_OBJECT
  5
31
102
{ACAD_REACTORS
330
2A
102
}
330
2A
100
AcDbProxyObject
 90
      499
 91
      501
 93
      500
310
424CD108121A5919195B90640502408333333333333E3BF0000000000000FB01079024090700405020000000000001110200405405064090740C02480A0340
1001
ACAD
1000
AcDbSavedByObjectVersion
1070
     0
  0
ACAD_PROXY_OBJECT
  5
30
102
{ACAD_REACTORS
330
2A
102
}
330
2A
100
AcDbProxyObject
 90
      499
 91
      501
 93
      436
310
42CCD915DA5C99599C985B595059028333333333333E3BF0000000000000FB0107901411070040501600405405064090741402480A0340
1001
ACAD
1000
AcDbSavedByObjectVersion
1070
     0
  0
ACAD_PROXY_OBJECT
  5
32
102
{ACAD_REACTORS
330
2A
102
}
330
2A
100
AcDbProxyObject
 90
      499
 91
      501
 93
      388
310
4150985CDA58D07406404333333333333E3BF0000000000000FB0107A41107004050150841D405064090741402480A0350
1001
ACAD
1000
AcDbSavedByObjectVersion
1070
     0
  0
ACAD_PROXY_OBJECT
  5
36
102
{ACAD_REACTORS
330
2A
102
}
330
2A
100
AcDbProxyObject
 90
      499
 91
      501
 93
      428
310
42109C9A59DA1D195B90C409028333333333333E3BF0000000000000FB010790141107004050150841D405064090741402480A029950
1001
ACAD
1000
AcDbSavedByObjectVersion
1070
     0
  0
ACAD_PROXY_OBJECT
  5
3A
102
{ACAD_REACTORS
330
2A
102
}
330
2A
100
AcDbProxyObject
 90
      499
 91
      501
 93
      452
310
42D0DBDB1BDC90DA185B99D95104090240C333333333333E3BF0000000000000FB0108901411070040501508421405064090741402480A0350
1001
ACAD
1000
AcDbSavedByObjectVersion
1070
     0
  0
ACAD_PROXY_OBJECT
  5
34
102
{ACAD_REACTORS
330
2A
102
}
330
2A
100
AcDbProxyObject
 90
      499
 91
      501
 93
      500
310
4290DBDB98D95C1D1D585B10940D028333333333333E3BF0000000000000FB0107902409070040501000000000000111010841D405064090740C02480A0340
1001
ACAD
1000
AcDbSavedByObjectVersion
1070
     0
  0
ACAD_PROXY_OBJECT
  5
35
102
{ACAD_REACTORS
330
2A
102
}
330
2A
100
AcDbProxyObject
 90
      499
 91
      501
 93
      412
310
40D11A5B50B409028333333333333E3BF0000000000000FB010790141107004050150841D405064090741402480A02677FFFFFD0
1001
ACAD
1000
AcDbSavedByObjectVersion
1070
     0
  0
ACAD_PROXY_OBJECT
  5
39
102
{ACAD_REACTORS
330
2A
102
}
330
2A
100
AcDbProxyObject
 90
      499
 91
      501
 93
      444
310
42D19858D95C185D1D195C9B90F409028333333333333E3BF0000000000000FB010790141107004050150841D405064090741402480A0350
1001
ACAD
1000
AcDbSavedByObjectVersion
1070
     0
  0
ACAD_PROXY_OBJECT
  5
2B
102
{ACAD_REACTORS
330
2A
102
}
330
2A
100
AcDbProxyObject
 90
      499
 91
      501
 93
      388
310
41119B185D240901404333333333333E3BF0000000000000F9010740A41107004050150841D405064090741402480A1B50
1001
ACAD
1000
AcDbSavedByObjectVersion
1070
     0
  0
ACAD_PROXY_OBJECT
  5
2C
102
{ACAD_REACTORS
330
2A
102
}
330
2A
100
AcDbProxyObject
 90
      499
 91
      501
 93
      476
310
43519B185D15DA5D1A115919D95CD0140901404333333333333E3BF0000000000000F9010740901411070040501600405405064090741402480A1B50
1001
ACAD
1000
AcDbSavedByObjectVersion
1070
     0
  0
ACAD_PROXY_OBJECT
  5
2D
102
{ACAD_REACTORS
330
2A
102
}
330
2A
100
AcDbProxyObject
 90
      499
 91
      501
 93
      412
310
41D1DBDD5C985D5910240902404333333333333E3BF0000000000000F9010740A411070040501641D405064090741402480A1B50
1001
ACAD
1000
AcDbSavedByObjectVersion
1070
     0
  0
ACAD_PROXY_OBJECT
  5
2E
102
{ACAD_REACTORS
330
2A
102
}
330
2A
100
AcDbProxyObject
 90
      499
 91
      501
 93
      500
310
4411DBDD5C985D5915DA5D1A115919D95CD0340902404333333333333E3BF0000000000000F9010740901411070040501600405405064090741402480A1B50
1001
ACAD
1000
AcDbSavedByObjectVersion
1070
     0
  0
ACAD_PROXY_OBJECT
  5
38
102
{ACAD_REACTORS
330
2A
102
}
330
2A
100
AcDbProxyObject
 90
      499
 91
      501
 93
      444
310
42D31A5B995C185D1D195C9B90E409028333333333333E3BF0000000000000FB010790141107004050750841D405064090741402483A0350
1001
ACAD
1000
AcDbSavedByObjectVersion
1070
     0
  0
ACAD_PROXY_OBJECT
  5
33
102
{ACAD_REACTORS
330
2A
102
}
330
2A
100
AcDbProxyObject
 90
      499
 91
      501
 93
      420
310
425499585B1A5CDD1A58D08409028333333333333E3BF0000000000000FB01079019070040501508421405064090741402480A1B40
1001
ACAD
1000
AcDbSavedByObjectVersion
1070
     0
  0
ACAD_PROXY_OBJECT
  5
37
102
{ACAD_REACTORS
330
2A
102
}
330
2A
100
AcDbProxyObject
 90
      499
 91
      501
 93
      412
310
41D51A1A58DAD95B90D409028333333333333E3BF0000000000000FB010790141107004050150C41D405064090741402480A0350
1001
ACAD
1000
AcDbSavedByObjectVersion
1070
     0
  0
XRECORD
  5
9C
102
{ACAD_REACTORS
330
93
102
}
330
93
100
AcDbXrecord
 90
        0
  0
XRECORD
  5
B2
102
{ACAD_REACTORS
330
93
102
}
330
93
100
AcDbXrecord
1000
DSTYLE
1002
{
1070
   340
340
11
1002
}
  0
XRECORD
  5
9D
102
{ACAD_REACTORS
330
93
102
}
330
93
100
AcDbXrecord
  1
{56E71D1D-FC29-478A-88F1-6B92255414BD}
  0
XRECORD
  5
96
102
{ACAD_REACTORS
330
93
102
}
330
93
100
AcDbXrecord
  1

  0
XRECORD
  5
9B
102
{ACAD_REACTORS
330
93
102
}
330
93
100
AcDbXrecord
 90
        4
  0
XRECORD
  5
98
102
{ACAD_REACTORS
330
93
102
}
330
93
100
AcDbXrecord
340
1A
  0
XRECORD
  5
9A
102
{ACAD_REACTORS
330
93
102
}
330
93
100
AcDbXrecord
 90
    10781
  0
XRECORD
  5
99
102
{ACAD_REACTORS
330
93
102
}
330
93
100
AcDbXrecord
340
19
  0
XRECORD
  5
9F
102
{ACAD_REACTORS
330
93
102
}
330
93
100
AcDbXrecord
 40
0.0
  0
XRECORD
  5
A2
102
{ACAD_REACTORS
330
93
102
}
330
93
100
AcDbXrecord
340
0
  0
XRECORD
  5
A8
102
{ACAD_REACTORS
330
93
102
}
330
93
100
AcDbXrecord
 10
0.0
 20
0.0
 30
0.0
  0
XRECORD
  5
A4
102
{ACAD_REACTORS
330
93
102
}
330
93
100
AcDbXrecord
 10
0.0
 20
0.0
 30
0.0
  0
XRECORD
  5
A7
102
{ACAD_REACTORS
330
93
102
}
330
93
100
AcDbXrecord
 10
0.0
 20
0.0
 30
0.0
  0
XRECORD
  5
A5
102
{ACAD_REACTORS
330
93
102
}
330
93
100
AcDbXrecord
 10
0.0
 20
0.0
 30
0.0
  0
XRECORD
  5
A6
102
{ACAD_REACTORS
330
93
102
}
330
93
100
AcDbXrecord
 10
0.0
 20
0.0
 30
0.0
  0
XRECORD
  5
A3
102
{ACAD_REACTORS
330
93
102
}
330
93
100
AcDbXrecord
 10
0.0
 20
0.0
 30
0.0
  0
XRECORD
  5
A0
102
{ACAD_REACTORS
330
93
102
}
330
93
100
AcDbXrecord
340
0
  0
XRECORD
  5
A1
102
{ACAD_REACTORS
330
93
102
}
330
93
100
AcDbXrecord
 70
     0
  0
XRECORD
  5
97
102
{ACAD_REACTORS
330
93
102
}
330
93
100
AcDbXrecord
  1

  0
XRECORD
  5
94
102
{ACAD_REACTORS
330
93
102
}
330
93
100
AcDbXrecord
 90
        1
  0
XRECORD
  5
95
102
{ACAD_REACTORS
330
93
102
}
330
93
100
AcDbXrecord
 90
       70
  0
XRECORD
  5
AB
102
{ACAD_REACTORS
330
93
102
}
330
93
100
AcDbXrecord
340
0
  0
XRECORD
  5
B1
102
{ACAD_REACTORS
330
93
102
}
330
93
100
AcDbXrecord
 10
0.0
 20
0.0
 30
0.0
  0
XRECORD
  5
AD
102
{ACAD_REACTORS
330
93
102
}
330
93
100
AcDbXrecord
 10
0.0
 20
0.0
 30
0.0
  0
XRECORD
  5
B0
102
{ACAD_REACTORS
330
93
102
}
330
93
100
AcDbXrecord
 10
0.0
 20
0.0
 30
0.0
  0
XRECORD
  5
AE
102
{ACAD_REACTORS
330
93
102
}
330
93
100
AcDbXrecord
 10
0.0
 20
0.0
 30
0.0
  0
XRECORD
  5
AF
102
{ACAD_REACTORS
330
93
102
}
330
93
100
AcDbXrecord
 10
0.0
 20
0.0
 30
0.0
  0
XRECORD
  5
AC
102
{ACAD_REACTORS
330
93
102
}
330
93
100
AcDbXrecord
 10
0.0
 20
0.0
 30
0.0
  0
XRECORD
  5
A9
102
{ACAD_REACTORS
330
93
102
}
330
93
100
AcDbXrecord
340
0
  0
XRECORD
  5
AA
102
{ACAD_REACTORS
330
93
102
}
330
93
100
AcDbXrecord
 70
     0
  0
XRECORD
  5
9E
102
{ACAD_REACTORS
330
93
102
}
330
93
100
AcDbXrecord
  1
{FAEB1C32-E019-11D5-929B-00C0DF256EC4}
  0
DICTIONARYVAR
  5
B6
102
{ACAD_REACTORS
330
B3
102
}
330
B3
100
DictionaryVariables
280
     0
  1
2
  0
DICTIONARYVAR
  5
B7
102
{ACAD_REACTORS
330
B3
102
}
330
B3
100
DictionaryVariables
280
     0
  1
1
  0
DICTIONARY
  5
BA
330
3D
100
AcDbDictionary
280
     1
  3
ACAD_XREC_ROUNDTRIP
360
BB
  0
DICTIONARY
  5
B8
330
3C
100
AcDbDictionary
280
     1
  3
ACAD_XREC_ROUNDTRIP
360
B9
  0
DICTIONARY
  5
BC
330
3E
100
AcDbDictionary
280
     1
  3
ACAD_XREC_ROUNDTRIP
360
BD
  0
XRECORD
  5
BB
102
{ACAD_REACTORS
330
BA
102
}
330
BA
100
AcDbXrecord
102
MATERIAL
148
0.0
149
0.0
149
0.0
 93
        0
 94
      127
282
     0
 72
     1
 77
     1
171
     1
175
     1
179
     1
273
     0
  0
XRECORD
  5
B9
102
{ACAD_REACTORS
330
B8
102
}
330
B8
100
AcDbXrecord
102
MATERIAL
148
0.0
149
0.0
149
0.0
 93
        0
 94
      127
282
     0
 72
     1
 77
     1
171
     1
175
     1
179
     1
273
     0
  0
XRECORD
  5
BD
102
{ACAD_REACTORS
330
BC
102
}
330
BC
100
AcDbXrecord
102
MATERIAL
148
0.0
149
0.0
149
0.0
 93
        0
 94
      127
282
     0
 72
     1
 77
     1
171
     1
175
     1
179
     1
273
     0
  0
ENDSEC
  0
EOF
