  0
SECTION
  2
HEADER
  9
$ACADVER
  1
AC1014
  9
$ACADMAINTVER
 70
     9
  9
$DWGCODEPAGE
  3
ANSI_1250
  9
$INSBASE
 10
0.0
 20
0.0
 30
0.0
  9
$EXTMIN
 10
-17.0128
 20
-39.6782
 30
0.0
  9
$EXTMAX
 10
17.0132
 20
39.6782
 30
0.0
  9
$LIMMIN
 10
0.0
 20
0.0
  9
$LIMMAX
 10
12.0
 20
9.0
  9
$ORTHOMODE
 70
     0
  9
$REGENMODE
 70
     1
  9
$FILLMODE
 70
     1
  9
$QTEXTMODE
 70
     0
  9
$MIRRTEXT
 70
     1
  9
$DRAGMODE
 70
     2
  9
$LTSCALE
 40
1.0
  9
$OSMODE
 70
    37
  9
$ATTMODE
 70
     1
  9
$TEXTSIZE
 40
0.2
  9
$TRACEWID
 40
0.05
  9
$TEXTSTYLE
  7
STANDARD
  9
$CLAYER
  8
0
  9
$CELTYPE
  6
BYLAYER
  9
$CECOLOR
 62
   256
  9
$CELTSCALE
 40
1.0
  9
$DELOBJ
 70
     1
  9
$DISPSILH
 70
     0
  9
$DIMSCALE
 40
1.0
  9
$DIMASZ
 40
0.18
  9
$DIMEXO
 40
0.0625
  9
$DIMDLI
 40
0.38
  9
$DIMRND
 40
0.0
  9
$DIMDLE
 40
0.0
  9
$DIMEXE
 40
0.18
  9
$DIMTP
 40
0.0
  9
$DIMTM
 40
0.0
  9
$DIMTXT
 40
0.18
  9
$DIMCEN
 40
0.09
  9
$DIMTSZ
 40
0.0
  9
$DIMTOL
 70
     0
  9
$DIMLIM
 70
     0
  9
$DIMTIH
 70
     1
  9
$DIMTOH
 70
     1
  9
$DIMSE1
 70
     0
  9
$DIMSE2
 70
     0
  9
$DIMTAD
 70
     0
  9
$DIMZIN
 70
     0
  9
$DIMBLK
  1

  9
$DIMASO
 70
     1
  9
$DIMSHO
 70
     1
  9
$DIMPOST
  1

  9
$DIMAPOST
  1

  9
$DIMALT
 70
     0
  9
$DIMALTD
 70
     2
  9
$DIMALTF
 40
25.4
  9
$DIMLFAC
 40
1.0
  9
$DIMTOFL
 70
     0
  9
$DIMTVP
 40
0.0
  9
$DIMTIX
 70
     0
  9
$DIMSOXD
 70
     0
  9
$DIMSAH
 70
     0
  9
$DIMBLK1
  1

  9
$DIMBLK2
  1

  9
$DIMSTYLE
  2
STANDARD
  9
$DIMCLRD
 70
     0
  9
$DIMCLRE
 70
     0
  9
$DIMCLRT
 70
     0
  9
$DIMTFAC
 40
1.0
  9
$DIMGAP
 40
0.09
  9
$DIMJUST
 70
     0
  9
$DIMSD1
 70
     0
  9
$DIMSD2
 70
     0
  9
$DIMTOLJ
 70
     1
  9
$DIMTZIN
 70
     0
  9
$DIMALTZ
 70
     0
  9
$DIMALTTZ
 70
     0
  9
$DIMFIT
 70
     3
  9
$DIMUPT
 70
     0
  9
$DIMUNIT
 70
     2
  9
$DIMDEC
 70
     4
  9
$DIMTDEC
 70
     4
  9
$DIMALTU
 70
     2
  9
$DIMALTTD
 70
     2
  9
$DIMTXSTY
  7
STANDARD
  9
$DIMAUNIT
 70
     0
  9
$LUNITS
 70
     2
  9
$LUPREC
 70
     4
  9
$SKETCHINC
 40
0.1
  9
$FILLETRAD
 40
0.5
  9
$AUNITS
 70
     0
  9
$AUPREC
 70
     0
  9
$MENU
  1
.
  9
$ELEVATION
 40
0.0
  9
$PELEVATION
 40
0.0
  9
$THICKNESS
 40
0.0
  9
$LIMCHECK
 70
     0
  9
$CHAMFERA
 40
0.5
  9
$CHAMFERB
 40
0.5
  9
$CHAMFERC
 40
1.0
  9
$CHAMFERD
 40
0.0
  9
$SKPOLY
 70
     0
  9
$TDCREATE
 40
2456223.342550428
  9
$TDUPDATE
 40
2456223.34255044
  9
$TDINDWG
 40
0.0000000116
  9
$TDUSRTIMER
 40
0.0000000116
  9
$USRTIMER
 70
     1
  9
$ANGBASE
 50
0.0
  9
$ANGDIR
 70
     0
  9
$PDMODE
 70
     0
  9
$PDSIZE
 40
0.0
  9
$PLINEWID
 40
0.0
  9
$COORDS
 70
     1
  9
$SPLFRAME
 70
     0
  9
$SPLINETYPE
 70
     6
  9
$SPLINESEGS
 70
     8
  9
$ATTDIA
 70
     0
  9
$ATTREQ
 70
     1
  9
$HANDLING
 70
     1
  9
$HANDSEED
  5
115
  9
$SURFTAB1
 70
     6
  9
$SURFTAB2
 70
     6
  9
$SURFTYPE
 70
     6
  9
$SURFU
 70
     6
  9
$SURFV
 70
     6
  9
$UCSNAME
  2

  9
$UCSORG
 10
0.0
 20
0.0
 30
0.0
  9
$UCSXDIR
 10
1.0
 20
0.0
 30
0.0
  9
$UCSYDIR
 10
0.0
 20
1.0
 30
0.0
  9
$PUCSNAME
  2

  9
$PUCSORG
 10
0.0
 20
0.0
 30
0.0
  9
$PUCSXDIR
 10
1.0
 20
0.0
 30
0.0
  9
$PUCSYDIR
 10
0.0
 20
1.0
 30
0.0
  9
$USERI1
 70
     0
  9
$USERI2
 70
     0
  9
$USERI3
 70
     0
  9
$USERI4
 70
     0
  9
$USERI5
 70
     0
  9
$USERR1
 40
0.0
  9
$USERR2
 40
0.0
  9
$USERR3
 40
0.0
  9
$USERR4
 40
0.0
  9
$USERR5
 40
0.0
  9
$WORLDVIEW
 70
     1
  9
$SHADEDGE
 70
     3
  9
$SHADEDIF
 70
    70
  9
$TILEMODE
 70
     1
  9
$MAXACTVP
 70
    64
  9
$PINSBASE
 10
0.0
 20
0.0
 30
0.0
  9
$PLIMCHECK
 70
     0
  9
$PEXTMIN
 10
1.000000000000000E+20
 20
1.000000000000000E+20
 30
1.000000000000000E+20
  9
$PEXTMAX
 10
-1.000000000000000E+20
 20
-1.000000000000000E+20
 30
-1.000000000000000E+20
  9
$PLIMMIN
 10
0.0
 20
0.0
  9
$PLIMMAX
 10
12.0
 20
9.0
  9
$UNITMODE
 70
     0
  9
$VISRETAIN
 70
     1
  9
$PLINEGEN
 70
     0
  9
$PSLTSCALE
 70
     1
  9
$TREEDEPTH
 70
  3020
  9
$PICKSTYLE
 70
     1
  9
$CMLSTYLE
  2
STANDARD
  9
$CMLJUST
 70
     0
  9
$CMLSCALE
 40
1.0
  9
$PROXYGRAPHICS
 70
     1
  9
$MEASUREMENT
 70
     0
  0
ENDSEC
  0
SECTION
  2
CLASSES
  0
CLASS
  1
ACDBDICTIONARYWDFLT
  2
AcDbDictionaryWithDefault
  3
ObjectDBX Classes
 90
        0
280
     0
281
     0
  0
CLASS
  1
VISUALSTYLE
  2
AcDbVisualStyle
  3
ObjectDBX Classes
 90
     4095
280
     0
281
     0
  0
CLASS
  1
MATERIAL
  2
AcDbMaterial
  3
ObjectDBX Classes
 90
     1153
280
     0
281
     0
  0
CLASS
  1
DICTIONARYVAR
  2
AcDbDictionaryVar
  3
ObjectDBX Classes
 90
        0
280
     0
281
     0
  0
CLASS
  1
XRECORD
  2
AcDbXrecord
  3
AutoCAD 2000
 90
        0
280
     0
281
     0
  0
CLASS
  1
LWPOLYLINE
  2
AcDbPolyline
  3
AutoCAD 2000
 90
        0
280
     0
281
     1
  0
CLASS
  1
HATCH
  2
AcDbHatch
  3
AutoCAD 2000
 90
        0
280
     0
281
     1
  0
CLASS
  1
ACDBPLACEHOLDER
  2
AcDbPlaceHolder
  3
ObjectDBX Classes
 90
        0
280
     0
281
     0
  0
CLASS
  1
LAYOUT
  2
AcDbLayout
  3
ObjectDBX Classes
 90
        0
280
     0
281
     0
  0
ENDSEC
  0
SECTION
  2
TABLES
  0
TABLE
  2
VPORT
  5
8
330
0
100
AcDbSymbolTable
 70
     1
  0
VPORT
  5
29
330
8
100
AcDbSymbolTableRecord
100
AcDbViewportTableRecord
  2
*ACTIVE
 70
     0
 10
0.0
 20
0.0
 11
1.0
 21
1.0
 12
10.42990654205607
 22
4.5
 13
0.0
 23
0.0
 14
0.5
 24
0.5
 15
0.5
 25
0.5
 16
0.0
 26
0.0
 36
1.0
 17
0.0
 27
0.0
 37
0.0
 40
9.0
 41
1.972972972850329
 42
50.0
 43
0.0
 44
0.0
 50
0.0
 51
0.0
 71
     0
 72
   100
 73
     1
 74
     3
 75
     0
 76
     0
 77
     0
 78
     0
  0
ENDTAB
  0
TABLE
  2
LTYPE
  5
5
330
0
100
AcDbSymbolTable
 70
     7
  0
LTYPE
  5
14
330
5
100
AcDbSymbolTableRecord
100
AcDbLinetypeTableRecord
  2
BYBLOCK
 70
     0
  3

 72
    65
 73
     0
 40
0.0
  0
LTYPE
  5
15
330
5
100
AcDbSymbolTableRecord
100
AcDbLinetypeTableRecord
  2
BYLAYER
 70
     0
  3

 72
    65
 73
     0
 40
0.0
  0
LTYPE
  5
16
330
5
100
AcDbSymbolTableRecord
100
AcDbLinetypeTableRecord
  2
CONTINUOUS
 70
     0
  3
Solid line
 72
    65
 73
     0
 40
0.0
  0
LTYPE
  5
82
330
5
100
AcDbSymbolTableRecord
100
AcDbLinetypeTableRecord
  2
NEW_LINE1
 70
     0
  3

 72
    65
 73
     4
 40
1.2
 49
0.5
 74
     4
 75
     0
340
0
 46
1.0
 50
0.0
 44
0.0
 45
0.0
 49
-0.3
 74
     4
 75
     0
340
0
 46
1.0
 50
0.0
 44
0.0
 45
0.0
 49
0.1
 74
     4
 75
     0
340
0
 46
1.0
 50
0.0
 44
0.0
 45
0.0
 49
-0.3
 74
     4
 75
     0
340
0
 46
1.0
 50
0.0
 44
0.0
 45
0.0
  0
LTYPE
  5
D8
330
5
100
AcDbSymbolTableRecord
100
AcDbLinetypeTableRecord
  2
NEW_LINE2
 70
     0
  3

 72
    65
 73
     2
 40
0.8
 49
0.5
 74
     4
 75
     0
340
0
 46
1.0
 50
0.0
 44
0.0
 45
0.0
 49
-0.3
 74
     4
 75
     0
340
0
 46
1.0
 50
0.0
 44
0.0
 45
0.0
  0
LTYPE
  5
DA
330
5
100
AcDbSymbolTableRecord
100
AcDbLinetypeTableRecord
  2
NEW_LINE3
 70
     0
  3

 72
    65
 73
     2
 40
0.8
 49
0.5
 74
     4
 75
     0
340
0
 46
1.0
 50
0.0
 44
0.0
 45
0.0
 49
-0.3
 74
     4
 75
     0
340
0
 46
1.0
 50
0.0
 44
0.0
 45
0.0
  0
LTYPE
  5
E5
330
5
100
AcDbSymbolTableRecord
100
AcDbLinetypeTableRecord
  2
NEW_LINE4
 70
     0
  3

 72
    65
 73
     2
 40
0.8
 49
0.5
 74
     4
 75
     0
340
0
 46
1.0
 50
0.0
 44
0.0
 45
0.0
 49
-0.3
 74
     4
 75
     0
340
0
 46
1.0
 50
0.0
 44
0.0
 45
0.0
  0
LTYPE
  5
E7
330
5
100
AcDbSymbolTableRecord
100
AcDbLinetypeTableRecord
  2
NEW_LINE5
 70
     0
  3

 72
    65
 73
     2
 40
0.8
 49
0.5
 74
     4
 75
     0
340
0
 46
1.0
 50
0.0
 44
0.0
 45
0.0
 49
-0.3
 74
     4
 75
     0
340
0
 46
1.0
 50
0.0
 44
0.0
 45
0.0
  0
LTYPE
  5
E9
330
5
100
AcDbSymbolTableRecord
100
AcDbLinetypeTableRecord
  2
NEW_LINE6
 70
     0
  3

 72
    65
 73
     2
 40
0.8
 49
0.5
 74
     4
 75
     0
340
0
 46
1.0
 50
0.0
 44
0.0
 45
0.0
 49
-0.3
 74
     4
 75
     0
340
0
 46
1.0
 50
0.0
 44
0.0
 45
0.0
  0
ENDTAB
  0
TABLE
  2
LAYER
  5
2
330
0
100
AcDbSymbolTable
 70
     2
  0
LAYER
  5
10
330
2
100
AcDbSymbolTableRecord
100
AcDbLayerTableRecord
  2
0
 70
     0
 62
     7
  6
CONTINUOUS
  0
LAYER
  5
40
330
2
100
AcDbSymbolTableRecord
100
AcDbLayerTableRecord
  2
ROUND
 70
     0
 62
     7
  6
CONTINUOUS
  0
ENDTAB
  0
TABLE
  2
STYLE
  5
3
330
0
100
AcDbSymbolTable
 70
     1
  0
STYLE
  5
11
330
3
100
AcDbSymbolTableRecord
100
AcDbTextStyleTableRecord
  2
STANDARD
 70
     0
 40
0.0
 41
1.0
 50
0.0
 71
     0
 42
0.2
  3
txt
  4

  0
ENDTAB
  0
TABLE
  2
VIEW
  5
6
330
0
100
AcDbSymbolTable
 70
     0
  0
ENDTAB
  0
TABLE
  2
UCS
  5
7
330
0
100
AcDbSymbolTable
 70
     0
  0
ENDTAB
  0
TABLE
  2
APPID
  5
9
330
0
100
AcDbSymbolTable
 70
     2
  0
APPID
  5
12
330
9
100
AcDbSymbolTableRecord
100
AcDbRegAppTableRecord
  2
ACAD
 70
     0
  0
APPID
  5
3F
330
9
100
AcDbSymbolTableRecord
100
AcDbRegAppTableRecord
  2
ODA
 70
     0
  0
ENDTAB
  0
TABLE
  2
DIMSTYLE
  5
A
330
0
100
AcDbSymbolTable
 70
     1
  0
DIMSTYLE
105
27
330
A
100
AcDbSymbolTableRecord
100
AcDbDimStyleTableRecord
  2
STANDARD
 70
     0
  3

  4

  5

  6

  7

 40
1.0
 41
0.18
 42
0.0625
 43
0.38
 44
0.18
 45
0.0
 46
0.0
 47
0.0
 48
0.0
140
0.18
141
0.09
142
0.0
143
25.4
144
1.0
145
0.0
146
1.0
147
0.09
 71
     0
 72
     0
 73
     1
 74
     1
 75
     0
 76
     0
 77
     0
 78
     0
170
     0
171
     2
172
     0
173
     0
174
     0
175
     0
176
     0
177
     0
178
     0
270
     2
271
     4
272
     4
273
     2
274
     2
340
11
275
     0
280
     0
281
     0
282
     0
283
     1
284
     0
285
     0
286
     0
287
     3
288
     0
  0
ENDTAB
  0
TABLE
  2
BLOCK_RECORD
  5
1
330
0
100
AcDbSymbolTable
 70
     1
  0
BLOCK_RECORD
  5
1F
330
1
100
AcDbSymbolTableRecord
100
AcDbBlockTableRecord
  2
*MODEL_SPACE
  0
BLOCK_RECORD
  5
1B
330
1
100
AcDbSymbolTableRecord
100
AcDbBlockTableRecord
  2
*PAPER_SPACE
  0
ENDTAB
  0
ENDSEC
  0
SECTION
  2
BLOCKS
  0
BLOCK
  5
20
330
1F
100
AcDbEntity
  8
0
100
AcDbBlockBegin
  2
*MODEL_SPACE
 70
     0
 10
0.0
 20
0.0
 30
0.0
  3
*MODEL_SPACE
  1

  0
ENDBLK
  5
21
330
1F
100
AcDbEntity
  8
0
100
AcDbBlockEnd
  0
BLOCK
  5
1C
330
1B
100
AcDbEntity
 67
     1
  8
0
100
AcDbBlockBegin
  2
*PAPER_SPACE
 70
     0
 10
0.0
 20
0.0
 30
0.0
  3
*PAPER_SPACE
  1

  0
ENDBLK
  5
1D
330
1B
100
AcDbEntity
 67
     1
  8
0
100
AcDbBlockEnd
  0
ENDSEC
  0
SECTION
  2
ENTITIES
  0
SPLINE
  5
41
330
1F
100
AcDbEntity
  8
ROUND
 62
   250
100
AcDbSpline
210
0.0
220
0.0
230
1.0
 70
    24
 71
     3
 72
     8
 73
     4
 74
     0
 42
0.0000000001
 43
0.0000000001
 40
0.0
 40
0.0
 40
0.0
 40
0.0
 40
1.0
 40
1.0
 40
1.0
 40
1.0
 10
5.983
 20
-21.7041
 30
0.0
 10
5.983
 20
-21.7041
 30
0.0
 10
17.0132
 20
-21.7041
 30
0.0
 10
17.0132
 20
-21.7041
 30
0.0
  0
SPLINE
  5
42
330
1F
100
AcDbEntity
  8
ROUND
 62
   250
100
AcDbSpline
210
0.0
220
0.0
230
1.0
 70
    24
 71
     3
 72
     8
 73
     4
 74
     0
 42
0.0000000001
 43
0.0000000001
 40
0.0
 40
0.0
 40
0.0
 40
0.0
 40
1.0
 40
1.0
 40
1.0
 40
1.0
 10
16.2622
 20
-21.7042
 30
0.0
 10
16.2622
 20
-21.7042
 30
0.0
 10
16.2622
 20
39.6768
 30
0.0
 10
16.2622
 20
39.6768
 30
0.0
  0
SPLINE
  5
43
330
1F
100
AcDbEntity
  8
ROUND
 62
   250
100
AcDbSpline
210
0.0
220
0.0
230
1.0
 70
    24
 71
     3
 72
     8
 73
     4
 74
     0
 42
0.0000000001
 43
0.0000000001
 40
0.0
 40
0.0
 40
0.0
 40
0.0
 40
1.0
 40
1.0
 40
1.0
 40
1.0
 10
-2.8021
 20
30.1137
 30
0.0
 10
-2.8021
 20
30.1137
 30
0.0
 10
16.9725
 20
30.1137
 30
0.0
 10
16.9725
 20
30.1137
 30
0.0
  0
SPLINE
  5
44
330
1F
100
AcDbEntity
  8
ROUND
 62
   250
100
AcDbSpline
210
0.0
220
0.0
230
1.0
 70
    24
 71
     3
 72
     8
 73
     4
 74
     0
 42
0.0000000001
 43
0.0000000001
 40
0.0
 40
0.0
 40
0.0
 40
0.0
 40
1.0
 40
1.0
 40
1.0
 40
1.0
 10
-2.9725
 20
33.395
 30
0.0
 10
-2.9725
 20
33.395
 30
0.0
 10
16.9282
 20
33.395
 30
0.0
 10
16.9282
 20
33.395
 30
0.0
  0
SPLINE
  5
45
330
1F
100
AcDbEntity
  8
ROUND
 62
   250
100
AcDbSpline
210
0.0
220
0.0
230
1.0
 70
    24
 71
     3
 72
     8
 73
     4
 74
     0
 42
0.0000000001
 43
0.0000000001
 40
0.0
 40
0.0
 40
0.0
 40
0.0
 40
1.0
 40
1.0
 40
1.0
 40
1.0
 10
-10.026
 20
-16.4722
 30
0.0
 10
-10.026
 20
-16.4722
 30
0.0
 10
5.4691
 20
-16.4722
 30
0.0
 10
5.4691
 20
-16.4722
 30
0.0
  0
SPLINE
  5
46
330
1F
100
AcDbEntity
  8
ROUND
 62
   250
100
AcDbSpline
210
0.0
220
0.0
230
1.0
 70
    24
 71
     3
 72
     8
 73
     4
 74
     0
 42
0.0000000001
 43
0.0000000001
 40
0.0
 40
0.0
 40
0.0
 40
0.0
 40
1.0
 40
1.0
 40
1.0
 40
1.0
 10
-10.026
 20
-11.0033
 30
0.0
 10
-10.026
 20
-11.0033
 30
0.0
 10
5.4691
 20
-11.0033
 30
0.0
 10
5.4691
 20
-11.0033
 30
0.0
  0
SPLINE
  5
47
330
1F
100
AcDbEntity
  8
ROUND
 62
   250
100
AcDbSpline
210
0.0
220
0.0
230
1.0
 70
    24
 71
     3
 72
     8
 73
     4
 74
     0
 42
0.0000000001
 43
0.0000000001
 40
0.0
 40
0.0
 40
0.0
 40
0.0
 40
1.0
 40
1.0
 40
1.0
 40
1.0
 10
-9.5703
 20
-10.5476
 30
0.0
 10
-9.5703
 20
-10.5476
 30
0.0
 10
5.0133
 20
-10.5476
 30
0.0
 10
5.0133
 20
-10.5476
 30
0.0
  0
SPLINE
  5
48
330
1F
100
AcDbEntity
  8
ROUND
 62
   250
100
AcDbSpline
210
0.0
220
0.0
230
1.0
 70
    24
 71
     3
 72
     8
 73
     4
 74
     0
 42
0.0000000001
 43
0.0000000001
 40
0.0
 40
0.0
 40
0.0
 40
0.0
 40
1.0
 40
1.0
 40
1.0
 40
1.0
 10
-10.026
 20
-11.0033
 30
0.0
 10
-10.026
 20
-11.0033
 30
0.0
 10
-10.026
 20
-16.5052
 30
0.0
 10
-10.026
 20
-16.5052
 30
0.0
  0
SPLINE
  5
49
330
1F
100
AcDbEntity
  8
ROUND
 62
   250
100
AcDbSpline
210
0.0
220
0.0
230
1.0
 70
    24
 71
     3
 72
     8
 73
     4
 74
     0
 42
0.0000000001
 43
0.0000000001
 40
0.0
 40
0.0
 40
0.0
 40
0.0
 40
1.0
 40
1.0
 40
1.0
 40
1.0
 10
-9.5703
 20
-5.5344
 30
0.0
 10
-9.5703
 20
-5.5344
 30
0.0
 10
-9.5703
 20
-10.5476
 30
0.0
 10
-9.5703
 20
-10.5476
 30
0.0
  0
SPLINE
  5
4A
330
1F
100
AcDbEntity
  8
ROUND
 62
   250
100
AcDbSpline
210
0.0
220
0.0
230
1.0
 70
    24
 71
     3
 72
     8
 73
     4
 74
     0
 42
0.0000000001
 43
0.0000000001
 40
0.0
 40
0.0
 40
0.0
 40
0.0
 40
1.0
 40
1.0
 40
1.0
 40
1.0
 10
-9.938
 20
-2.0676
 30
0.0
 10
-9.938
 20
-2.0676
 30
0.0
 10
-9.9985
 20
-5.5344
 30
0.0
 10
-9.9985
 20
-5.5344
 30
0.0
  0
SPLINE
  5
4B
330
1F
100
AcDbEntity
  8
ROUND
 62
   250
100
AcDbSpline
210
0.0
220
0.0
230
1.0
 70
    24
 71
     3
 72
     8
 73
     4
 74
     0
 42
0.0000000001
 43
0.0000000001
 40
0.0
 40
0.0
 40
0.0
 40
0.0
 40
1.0
 40
1.0
 40
1.0
 40
1.0
 10
-9.9985
 20
-5.5344
 30
0.0
 10
-9.9985
 20
-5.5344
 30
0.0
 10
5.4415
 20
-5.5344
 30
0.0
 10
5.4415
 20
-5.5344
 30
0.0
  0
SPLINE
  5
4C
330
1F
100
AcDbEntity
  8
ROUND
 62
   250
100
AcDbSpline
210
0.0
220
0.0
230
1.0
 70
    24
 71
     3
 72
     8
 73
     4
 74
     0
 42
0.0000000001
 43
0.0000000001
 40
0.0
 40
0.0
 40
0.0
 40
0.0
 40
1.0
 40
1.0
 40
1.0
 40
1.0
 10
0.3648
 20
-2.8364
 30
0.0
 10
0.3648
 20
-2.8364
 30
0.0
 10
-4.9217
 20
-2.8364
 30
0.0
 10
-4.9217
 20
-2.8364
 30
0.0
  0
SPLINE
  5
4D
330
1F
100
AcDbEntity
  8
ROUND
 62
   250
100
AcDbSpline
210
0.0
220
0.0
230
1.0
 70
    24
 71
     3
 72
     8
 73
     4
 74
     0
 42
0.0000000001
 43
0.0000000001
 40
0.0
 40
0.0
 40
0.0
 40
0.0
 40
1.0
 40
1.0
 40
1.0
 40
1.0
 10
-7.5776
 20
0.1262
 30
0.0
 10
-7.5776
 20
0.1262
 30
0.0
 10
-7.592
 20
0.2079
 30
0.0
 10
-7.592
 20
0.2079
 30
0.0
  0
SPLINE
  5
4E
330
1F
100
AcDbEntity
  8
ROUND
 62
   250
100
AcDbSpline
210
0.0
220
0.0
230
1.0
 70
    24
 71
     3
 72
     8
 73
     4
 74
     0
 42
0.0000000001
 43
0.0000000001
 40
0.0
 40
0.0
 40
0.0
 40
0.0
 40
1.0
 40
1.0
 40
1.0
 40
1.0
 10
-5.5233
 20
0.2423
 30
0.0
 10
-5.5233
 20
0.2423
 30
0.0
 10
-5.5162
 20
-0.1678
 30
0.0
 10
-5.5162
 20
-0.1678
 30
0.0
  0
SPLINE
  5
4F
330
1F
100
AcDbEntity
  8
ROUND
 62
   250
100
AcDbSpline
210
0.0
220
0.0
230
1.0
 70
    24
 71
     3
 72
     8
 73
     4
 74
     0
 42
0.0000000001
 43
0.0000000001
 40
0.0
 40
0.0
 40
0.0
 40
0.0
 40
1.0
 40
1.0
 40
1.0
 40
1.0
 10
-5.4816
 20
-1.5239
 30
0.0
 10
-5.4816
 20
-1.5239
 30
0.0
 10
-5.478
 20
-1.8885
 30
0.0
 10
-5.478
 20
-1.8885
 30
0.0
  0
SPLINE
  5
50
330
1F
100
AcDbEntity
  8
ROUND
 62
   250
100
AcDbSpline
210
0.0
220
0.0
230
1.0
 70
    24
 71
     3
 72
     8
 73
     4
 74
     0
 42
0.0000000001
 43
0.0000000001
 40
0.0
 40
0.0
 40
0.0
 40
0.0
 40
1.0
 40
1.0
 40
1.0
 40
1.0
 10
-5.8332
 20
23.3687
 30
0.0
 10
-5.8332
 20
23.3687
 30
0.0
 10
-5.8332
 20
27.3792
 30
0.0
 10
-5.8332
 20
27.3792
 30
0.0
  0
SPLINE
  5
51
330
1F
100
AcDbEntity
  8
ROUND
 62
   250
100
AcDbSpline
210
0.0
220
0.0
230
1.0
 70
    24
 71
     3
 72
     8
 73
     4
 74
     0
 42
0.0000000001
 43
0.0000000001
 40
0.0
 40
0.0
 40
0.0
 40
0.0
 40
1.0
 40
1.0
 40
1.0
 40
1.0
 10
-5.4686
 20
33.2127
 30
0.0
 10
-5.4686
 20
33.2127
 30
0.0
 10
-5.4686
 20
27.3792
 30
0.0
 10
-5.4686
 20
27.3792
 30
0.0
  0
SPLINE
  5
52
330
1F
100
AcDbEntity
  8
ROUND
 62
   250
100
AcDbSpline
210
0.0
220
0.0
230
1.0
 70
    24
 71
     3
 72
     8
 73
     4
 74
     0
 42
0.0000000001
 43
0.0000000001
 40
0.0
 40
0.0
 40
0.0
 40
0.0
 40
1.0
 40
1.0
 40
1.0
 40
1.0
 10
-5.2863
 20
27.3792
 30
0.0
 10
-5.2863
 20
27.3792
 30
0.0
 10
-5.2863
 20
25.4651
 30
0.0
 10
-5.2863
 20
25.4651
 30
0.0
  0
SPLINE
  5
53
330
1F
100
AcDbEntity
  8
ROUND
 62
   250
100
AcDbSpline
210
0.0
220
0.0
230
1.0
 70
    24
 71
     3
 72
     8
 73
     4
 74
     0
 42
0.0000000001
 43
0.0000000001
 40
0.0
 40
0.0
 40
0.0
 40
0.0
 40
1.0
 40
1.0
 40
1.0
 40
1.0
 10
-4.9217
 20
-2.8364
 30
0.0
 10
-4.9217
 20
-2.8364
 30
0.0
 10
-4.9217
 20
-1.5239
 30
0.0
 10
-4.9217
 20
-1.5239
 30
0.0
  0
SPLINE
  5
54
330
1F
100
AcDbEntity
  8
ROUND
 62
   250
100
AcDbSpline
210
0.0
220
0.0
230
1.0
 70
    24
 71
     3
 72
     8
 73
     4
 74
     0
 42
0.0000000001
 43
0.0000000001
 40
0.0
 40
0.0
 40
0.0
 40
0.0
 40
1.0
 40
1.0
 40
1.0
 40
1.0
 10
-4.7394
 20
33.395
 30
0.0
 10
-4.7394
 20
33.395
 30
0.0
 10
-4.7394
 20
30.1137
 30
0.0
 10
-4.7394
 20
30.1137
 30
0.0
  0
SPLINE
  5
55
330
1F
100
AcDbEntity
  8
ROUND
 62
   250
100
AcDbSpline
210
0.0
220
0.0
230
1.0
 70
    24
 71
     3
 72
     8
 73
     4
 74
     0
 42
0.0000000001
 43
0.0000000001
 40
0.0
 40
0.0
 40
0.0
 40
0.0
 40
1.0
 40
1.0
 40
1.0
 40
1.0
 10
-6.641
 20
0.1262
 30
0.0
 10
-6.641
 20
0.1262
 30
0.0
 10
-6.6266
 20
0.2079
 30
0.0
 10
-6.6266
 20
0.2079
 30
0.0
  0
SPLINE
  5
56
330
1F
100
AcDbEntity
  8
ROUND
 62
   250
100
AcDbSpline
210
0.0
220
0.0
230
1.0
 70
    24
 71
     3
 72
     8
 73
     4
 74
     0
 42
0.0000000001
 43
0.0000000001
 40
0.0
 40
0.0
 40
0.0
 40
0.0
 40
1.0
 40
1.0
 40
1.0
 40
1.0
 10
-4.9217
 20
-2.2531
 30
0.0
 10
-4.9217
 20
-2.2531
 30
0.0
 10
0.3648
 20
-2.2531
 30
0.0
 10
0.3648
 20
-2.2531
 30
0.0
  0
SPLINE
  5
57
330
1F
100
AcDbEntity
  8
ROUND
 62
   250
100
AcDbSpline
210
0.0
220
0.0
230
1.0
 70
    24
 71
     3
 72
     8
 73
     4
 74
     0
 42
0.0000000001
 43
0.0000000001
 40
0.0
 40
0.0
 40
0.0
 40
0.0
 40
1.0
 40
1.0
 40
1.0
 40
1.0
 10
0.3648
 20
-1.8885
 30
0.0
 10
0.3648
 20
-1.8885
 30
0.0
 10
-4.9217
 20
-1.8885
 30
0.0
 10
-4.9217
 20
-1.8885
 30
0.0
  0
SPLINE
  5
58
330
1F
100
AcDbEntity
  8
ROUND
 62
   250
100
AcDbSpline
210
0.0
220
0.0
230
1.0
 70
    24
 71
     3
 72
     8
 73
     4
 74
     0
 42
0.0000000001
 43
0.0000000001
 40
0.0
 40
0.0
 40
0.0
 40
0.0
 40
1.0
 40
1.0
 40
1.0
 40
1.0
 10
-5.4816
 20
-1.5239
 30
0.0
 10
-5.4816
 20
-1.5239
 30
0.0
 10
-4.9217
 20
-1.5239
 30
0.0
 10
-4.9217
 20
-1.5239
 30
0.0
  0
SPLINE
  5
59
330
1F
100
AcDbEntity
  8
ROUND
 62
   250
100
AcDbSpline
210
0.0
220
0.0
230
1.0
 70
    24
 71
     3
 72
     8
 73
     4
 74
     0
 42
0.0000000001
 43
0.0000000001
 40
0.0
 40
0.0
 40
0.0
 40
0.0
 40
1.0
 40
1.0
 40
1.0
 40
1.0
 10
0.3648
 20
-1.5239
 30
0.0
 10
0.3648
 20
-1.5239
 30
0.0
 10
0.9246
 20
-1.5239
 30
0.0
 10
0.9246
 20
-1.5239
 30
0.0
  0
SPLINE
  5
5A
330
1F
100
AcDbEntity
  8
ROUND
 62
   250
100
AcDbSpline
210
0.0
220
0.0
230
1.0
 70
    24
 71
     3
 72
     8
 73
     4
 74
     0
 42
0.0000000001
 43
0.0000000001
 40
0.0
 40
0.0
 40
0.0
 40
0.0
 40
1.0
 40
1.0
 40
1.0
 40
1.0
 10
5.0133
 20
-10.5476
 30
0.0
 10
5.0133
 20
-10.5476
 30
0.0
 10
5.4691
 20
-11.0033
 30
0.0
 10
5.4691
 20
-11.0033
 30
0.0
  0
SPLINE
  5
5B
330
1F
100
AcDbEntity
  8
ROUND
 62
   250
100
AcDbSpline
210
0.0
220
0.0
230
1.0
 70
    24
 71
     3
 72
     8
 73
     4
 74
     0
 42
0.0000000001
 43
0.0000000001
 40
0.0
 40
0.0
 40
0.0
 40
0.0
 40
1.0
 40
1.0
 40
1.0
 40
1.0
 10
-2.9553
 20
-2.2531
 30
0.0
 10
-2.9553
 20
-2.2531
 30
0.0
 10
-2.955
 20
-2.8364
 30
0.0
 10
-2.955
 20
-2.8364
 30
0.0
  0
SPLINE
  5
5C
330
1F
100
AcDbEntity
  8
ROUND
 62
   250
100
AcDbSpline
210
0.0
220
0.0
230
1.0
 70
    24
 71
     3
 72
     8
 73
     4
 74
     0
 42
0.0000000001
 43
0.0000000001
 40
0.0
 40
0.0
 40
0.0
 40
0.0
 40
1.0
 40
1.0
 40
1.0
 40
1.0
 10
-3.2811
 20
30.1137
 30
0.0
 10
-3.2811
 20
30.1137
 30
0.0
 10
-3.2811
 20
33.395
 30
0.0
 10
-3.2811
 20
33.395
 30
0.0
  0
SPLINE
  5
5D
330
1F
100
AcDbEntity
  8
ROUND
 62
   250
100
AcDbSpline
210
0.0
220
0.0
230
1.0
 70
    24
 71
     3
 72
     8
 73
     4
 74
     0
 42
0.0000000001
 43
0.0000000001
 40
0.0
 40
0.0
 40
0.0
 40
0.0
 40
1.0
 40
1.0
 40
1.0
 40
1.0
 10
-2.9688
 20
-2.2531
 30
0.0
 10
-2.9688
 20
-2.2531
 30
0.0
 10
-2.9688
 20
-2.8364
 30
0.0
 10
-2.9688
 20
-2.8364
 30
0.0
  0
SPLINE
  5
5E
330
1F
100
AcDbEntity
  8
ROUND
 62
   250
100
AcDbSpline
210
0.0
220
0.0
230
1.0
 70
    24
 71
     3
 72
     8
 73
     4
 74
     0
 42
0.0000000001
 43
0.0000000001
 40
0.0
 40
0.0
 40
0.0
 40
0.0
 40
1.0
 40
1.0
 40
1.0
 40
1.0
 10
-2.9621
 20
-11.7325
 30
0.0
 10
-2.9621
 20
-11.7325
 30
0.0
 10
-2.9621
 20
-12.0424
 30
0.0
 10
-2.9621
 20
-12.0424
 30
0.0
  0
SPLINE
  5
5F
330
1F
100
AcDbEntity
  8
ROUND
 62
   250
100
AcDbSpline
210
0.0
220
0.0
230
1.0
 70
    24
 71
     3
 72
     8
 73
     4
 74
     0
 42
0.0000000001
 43
0.0000000001
 40
0.0
 40
0.0
 40
0.0
 40
0.0
 40
1.0
 40
1.0
 40
1.0
 40
1.0
 10
-2.6051
 20
-2.2531
 30
0.0
 10
-2.6051
 20
-2.2531
 30
0.0
 10
-2.6051
 20
-2.8364
 30
0.0
 10
-2.6051
 20
-2.8364
 30
0.0
  0
SPLINE
  5
60
330
1F
100
AcDbEntity
  8
ROUND
 62
   250
100
AcDbSpline
210
0.0
220
0.0
230
1.0
 70
    24
 71
     3
 72
     8
 73
     4
 74
     0
 42
0.0000000001
 43
0.0000000001
 40
0.0
 40
0.0
 40
0.0
 40
0.0
 40
1.0
 40
1.0
 40
1.0
 40
1.0
 10
-5.5162
 20
-0.1678
 30
0.0
 10
-5.5162
 20
-0.1678
 30
0.0
 10
-5.104
 20
0.2444
 30
0.0
 10
-5.104
 20
0.2444
 30
0.0
  0
SPLINE
  5
61
330
1F
100
AcDbEntity
  8
ROUND
 62
   250
100
AcDbSpline
210
0.0
220
0.0
230
1.0
 70
    24
 71
     3
 72
     8
 73
     4
 74
     0
 42
0.0000000001
 43
0.0000000001
 40
0.0
 40
0.0
 40
0.0
 40
0.0
 40
1.0
 40
1.0
 40
1.0
 40
1.0
 10
-1.5948
 20
-11.7325
 30
0.0
 10
-1.5948
 20
-11.7325
 30
0.0
 10
-1.5948
 20
-12.0424
 30
0.0
 10
-1.5948
 20
-12.0424
 30
0.0
  0
SPLINE
  5
62
330
1F
100
AcDbEntity
  8
ROUND
 62
   250
100
AcDbSpline
210
0.0
220
0.0
230
1.0
 70
    24
 71
     3
 72
     8
 73
     4
 74
     0
 42
0.0000000001
 43
0.0000000001
 40
0.0
 40
0.0
 40
0.0
 40
0.0
 40
1.0
 40
1.0
 40
1.0
 40
1.0
 10
0.5471
 20
0.2444
 30
0.0
 10
0.5471
 20
0.2444
 30
0.0
 10
0.9592
 20
-0.1678
 30
0.0
 10
0.9592
 20
-0.1678
 30
0.0
  0
SPLINE
  5
63
330
1F
100
AcDbEntity
  8
ROUND
 62
   250
100
AcDbSpline
210
0.0
220
0.0
230
1.0
 70
    24
 71
     3
 72
     8
 73
     4
 74
     0
 42
0.0000000001
 43
0.0000000001
 40
0.0
 40
0.0
 40
0.0
 40
0.0
 40
1.0
 40
1.0
 40
1.0
 40
1.0
 10
0.3648
 20
-1.5239
 30
0.0
 10
0.3648
 20
-1.5239
 30
0.0
 10
0.3648
 20
-2.8364
 30
0.0
 10
0.3648
 20
-2.8364
 30
0.0
  0
SPLINE
  5
64
330
1F
100
AcDbEntity
  8
ROUND
 62
   250
100
AcDbSpline
210
0.0
220
0.0
230
1.0
 70
    24
 71
     3
 72
     8
 73
     4
 74
     0
 42
0.0000000001
 43
0.0000000001
 40
0.0
 40
0.0
 40
0.0
 40
0.0
 40
1.0
 40
1.0
 40
1.0
 40
1.0
 10
0.7294
 20
25.4651
 30
0.0
 10
0.7294
 20
25.4651
 30
0.0
 10
0.7294
 20
27.3792
 30
0.0
 10
0.7294
 20
27.3792
 30
0.0
  0
SPLINE
  5
65
330
1F
100
AcDbEntity
  8
ROUND
 62
   250
100
AcDbSpline
210
0.0
220
0.0
230
1.0
 70
    24
 71
     3
 72
     8
 73
     4
 74
     0
 42
0.0000000001
 43
0.0000000001
 40
0.0
 40
0.0
 40
0.0
 40
0.0
 40
1.0
 40
1.0
 40
1.0
 40
1.0
 10
1.2763
 20
27.3792
 30
0.0
 10
1.2763
 20
27.3792
 30
0.0
 10
1.2763
 20
23.3687
 30
0.0
 10
1.2763
 20
23.3687
 30
0.0
  0
SPLINE
  5
66
330
1F
100
AcDbEntity
  8
ROUND
 62
   250
100
AcDbSpline
210
0.0
220
0.0
230
1.0
 70
    24
 71
     3
 72
     8
 73
     4
 74
     0
 42
0.0000000001
 43
0.0000000001
 40
0.0
 40
0.0
 40
0.0
 40
0.0
 40
1.0
 40
1.0
 40
1.0
 40
1.0
 10
0.9246
 20
-1.5239
 30
0.0
 10
0.9246
 20
-1.5239
 30
0.0
 10
0.921
 20
-1.8885
 30
0.0
 10
0.921
 20
-1.8885
 30
0.0
  0
SPLINE
  5
67
330
1F
100
AcDbEntity
  8
ROUND
 62
   250
100
AcDbSpline
210
0.0
220
0.0
230
1.0
 70
    24
 71
     3
 72
     8
 73
     4
 74
     0
 42
0.0000000001
 43
0.0000000001
 40
0.0
 40
0.0
 40
0.0
 40
0.0
 40
1.0
 40
1.0
 40
1.0
 40
1.0
 10
0.9664
 20
0.2423
 30
0.0
 10
0.9664
 20
0.2423
 30
0.0
 10
0.9592
 20
-0.1678
 30
0.0
 10
0.9592
 20
-0.1678
 30
0.0
  0
SPLINE
  5
68
330
1F
100
AcDbEntity
  8
ROUND
 62
   250
100
AcDbSpline
210
0.0
220
0.0
230
1.0
 70
    24
 71
     3
 72
     8
 73
     4
 74
     0
 42
0.0000000001
 43
0.0000000001
 40
0.0
 40
0.0
 40
0.0
 40
0.0
 40
1.0
 40
1.0
 40
1.0
 40
1.0
 10
-9.5703
 20
-10.5476
 30
0.0
 10
-9.5703
 20
-10.5476
 30
0.0
 10
-10.026
 20
-11.0033
 30
0.0
 10
-10.026
 20
-11.0033
 30
0.0
  0
SPLINE
  5
69
330
1F
100
AcDbEntity
  8
ROUND
 62
   250
100
AcDbSpline
210
0.0
220
0.0
230
1.0
 70
    24
 71
     3
 72
     8
 73
     4
 74
     0
 42
0.0000000001
 43
0.0000000001
 40
0.0
 40
0.0
 40
0.0
 40
0.0
 40
1.0
 40
1.0
 40
1.0
 40
1.0
 10
2.084
 20
0.1262
 30
0.0
 10
2.084
 20
0.1262
 30
0.0
 10
2.0696
 20
0.2079
 30
0.0
 10
2.0696
 20
0.2079
 30
0.0
  0
SPLINE
  5
6A
330
1F
100
AcDbEntity
  8
ROUND
 62
   250
100
AcDbSpline
210
0.0
220
0.0
230
1.0
 70
    24
 71
     3
 72
     8
 73
     4
 74
     0
 42
0.0000000001
 43
0.0000000001
 40
0.0
 40
0.0
 40
0.0
 40
0.0
 40
1.0
 40
1.0
 40
1.0
 40
1.0
 10
3.0207
 20
0.1262
 30
0.0
 10
3.0207
 20
0.1262
 30
0.0
 10
3.0351
 20
0.2079
 30
0.0
 10
3.0351
 20
0.2079
 30
0.0
  0
SPLINE
  5
6B
330
1F
100
AcDbEntity
  8
ROUND
 62
   250
100
AcDbSpline
210
0.0
220
0.0
230
1.0
 70
    24
 71
     3
 72
     8
 73
     4
 74
     0
 42
0.0000000001
 43
0.0000000001
 40
0.0
 40
0.0
 40
0.0
 40
0.0
 40
1.0
 40
1.0
 40
1.0
 40
1.0
 10
5.3811
 20
-2.0676
 30
0.0
 10
5.3811
 20
-2.0676
 30
0.0
 10
5.4416
 20
-5.5344
 30
0.0
 10
5.4416
 20
-5.5344
 30
0.0
  0
SPLINE
  5
6C
330
1F
100
AcDbEntity
  8
ROUND
 62
   250
100
AcDbSpline
210
0.0
220
0.0
230
1.0
 70
    24
 71
     3
 72
     8
 73
     4
 74
     0
 42
0.0000000001
 43
0.0000000001
 40
0.0
 40
0.0
 40
0.0
 40
0.0
 40
1.0
 40
1.0
 40
1.0
 40
1.0
 10
5.0133
 20
-5.5344
 30
0.0
 10
5.0133
 20
-5.5344
 30
0.0
 10
5.0133
 20
-10.5476
 30
0.0
 10
5.0133
 20
-10.5476
 30
0.0
  0
SPLINE
  5
6D
330
1F
100
AcDbEntity
  8
ROUND
 62
   250
100
AcDbSpline
210
0.0
220
0.0
230
1.0
 70
    24
 71
     3
 72
     8
 73
     4
 74
     0
 42
0.0000000001
 43
0.0000000001
 40
0.0
 40
0.0
 40
0.0
 40
0.0
 40
1.0
 40
1.0
 40
1.0
 40
1.0
 10
5.4691
 20
-11.0033
 30
0.0
 10
5.4691
 20
-11.0033
 30
0.0
 10
5.4691
 20
-16.4872
 30
0.0
 10
5.4691
 20
-16.4872
 30
0.0
  0
SPLINE
  5
6E
330
1F
100
AcDbEntity
  8
ROUND
 62
   250
100
AcDbSpline
210
0.0
220
0.0
230
1.0
 70
    24
 71
     3
 72
     8
 73
     4
 74
     0
 42
0.0000000001
 43
0.0000000001
 40
0.0
 40
0.0
 40
0.0
 40
0.0
 40
1.0
 40
1.0
 40
1.0
 40
1.0
 10
0.8418
 20
27.7438
 30
0.0
 10
0.8418
 20
27.7438
 30
0.0
 10
-2.5519
 20
30.5915
 30
0.0
 10
-2.5519
 20
30.5915
 30
0.0
  0
SPLINE
  5
6F
330
1F
100
AcDbEntity
  8
ROUND
 62
   250
100
AcDbSpline
210
0.0
220
0.0
230
1.0
 70
    24
 71
     3
 72
     8
 73
     4
 74
     0
 42
0.0000000001
 43
0.0000000001
 40
0.0
 40
0.0
 40
0.0
 40
0.0
 40
1.0
 40
1.0
 40
1.0
 40
1.0
 10
1.2763
 20
25.8284
 30
0.0
 10
1.2763
 20
25.8284
 30
0.0
 10
0.7294
 20
25.8284
 30
0.0
 10
0.7294
 20
25.8284
 30
0.0
  0
SPLINE
  5
70
330
1F
100
AcDbEntity
  8
ROUND
 62
   250
100
AcDbSpline
210
0.0
220
0.0
230
1.0
 70
    24
 71
     3
 72
     8
 73
     4
 74
     0
 42
0.0000000001
 43
0.0000000001
 40
0.0
 40
0.0
 40
0.0
 40
0.0
 40
1.0
 40
1.0
 40
1.0
 40
1.0
 10
-5.2863
 20
25.8284
 30
0.0
 10
-5.2863
 20
25.8284
 30
0.0
 10
-5.8332
 20
25.8284
 30
0.0
 10
-5.8332
 20
25.8284
 30
0.0
  0
SPLINE
  5
71
330
1F
100
AcDbEntity
  8
ROUND
 62
   250
100
AcDbSpline
210
0.0
220
0.0
230
1.0
 70
    24
 71
     3
 72
     8
 73
     4
 74
     0
 42
0.0000000001
 43
0.0000000001
 40
0.0
 40
0.0
 40
0.0
 40
0.0
 40
1.0
 40
1.0
 40
1.0
 40
1.0
 10
1.6409
 20
27.1969
 30
0.0
 10
1.6409
 20
27.1969
 30
0.0
 10
1.2763
 20
27.1969
 30
0.0
 10
1.2763
 20
27.1969
 30
0.0
  0
SPLINE
  5
72
330
1F
100
AcDbEntity
  8
ROUND
 62
   250
100
AcDbSpline
210
0.0
220
0.0
230
1.0
 70
    24
 71
     3
 72
     8
 73
     4
 74
     0
 42
0.0000000001
 43
0.0000000001
 40
0.0
 40
0.0
 40
0.0
 40
0.0
 40
1.0
 40
1.0
 40
1.0
 40
1.0
 10
-5.8332
 20
27.3792
 30
0.0
 10
-5.8332
 20
27.3792
 30
0.0
 10
-5.2863
 20
27.3792
 30
0.0
 10
-5.2863
 20
27.3792
 30
0.0
  0
SPLINE
  5
73
330
1F
100
AcDbEntity
  8
ROUND
 62
   250
100
AcDbSpline
210
0.0
220
0.0
230
1.0
 70
    24
 71
     3
 72
     8
 73
     4
 74
     0
 42
0.0000000001
 43
0.0000000001
 40
0.0
 40
0.0
 40
0.0
 40
0.0
 40
1.0
 40
1.0
 40
1.0
 40
1.0
 10
0.7294
 20
27.3792
 30
0.0
 10
0.7294
 20
27.3792
 30
0.0
 10
1.2763
 20
27.3792
 30
0.0
 10
1.2763
 20
27.3792
 30
0.0
  0
SPLINE
  5
74
330
1F
100
AcDbEntity
  8
ROUND
 62
   250
100
AcDbSpline
210
0.0
220
0.0
230
1.0
 70
    24
 71
     3
 72
     8
 73
     4
 74
     0
 42
0.0000000001
 43
0.0000000001
 40
0.0
 40
0.0
 40
0.0
 40
0.0
 40
1.0
 40
1.0
 40
1.0
 40
1.0
 10
0.8418
 20
27.7438
 30
0.0
 10
0.8418
 20
27.7438
 30
0.0
 10
1.6409
 20
27.7438
 30
0.0
 10
1.6409
 20
27.7438
 30
0.0
  0
SPLINE
  5
75
330
1F
100
AcDbEntity
  8
ROUND
 62
   250
100
AcDbSpline
210
0.0
220
0.0
230
1.0
 70
    24
 71
     3
 72
     8
 73
     4
 74
     0
 42
0.0000000001
 43
0.0000000001
 40
0.0
 40
0.0
 40
0.0
 40
0.0
 40
1.0
 40
1.0
 40
1.0
 40
1.0
 10
-4.7394
 20
30.1137
 30
0.0
 10
-4.7394
 20
30.1137
 30
0.0
 10
-3.2811
 20
30.1137
 30
0.0
 10
-3.2811
 20
30.1137
 30
0.0
  0
SPLINE
  5
76
330
1F
100
AcDbEntity
  8
ROUND
 62
   250
100
AcDbSpline
210
0.0
220
0.0
230
1.0
 70
    24
 71
     3
 72
     8
 73
     4
 74
     0
 42
0.0000000001
 43
0.0000000001
 40
0.0
 40
0.0
 40
0.0
 40
0.0
 40
1.0
 40
1.0
 40
1.0
 40
1.0
 10
-3.2811
 20
33.395
 30
0.0
 10
-3.2811
 20
33.395
 30
0.0
 10
-4.7394
 20
33.395
 30
0.0
 10
-4.7394
 20
33.395
 30
0.0
  0
SPLINE
  5
77
330
1F
100
AcDbEntity
  8
ROUND
 62
   250
100
AcDbSpline
210
0.0
220
0.0
230
1.0
 70
     8
 71
     3
 72
    20
 73
    16
 74
     0
 42
0.0000000001
 43
0.0000000001
 40
0.0
 40
0.0
 40
0.0
 40
0.0
 40
0.2
 40
0.2
 40
0.2
 40
0.2
 40
0.4
 40
0.4
 40
0.4
 40
0.4
 40
0.6
 40
0.6
 40
0.6
 40
0.6
 40
1.0
 40
1.0
 40
1.0
 40
1.0
 10
-7.3831
 20
0.2457
 30
0.0
 10
-7.7065
 20
0.1146
 30
0.0
 10
-7.8918
 20
-0.2271
 30
0.0
 10
-7.825
 20
-0.5696
 30
0.0
 10
-7.825
 20
-0.5696
 30
0.0
 10
-7.7583
 20
-0.9121
 30
0.0
 10
-7.4582
 20
-1.1593
 30
0.0
 10
-7.1093
 20
-1.1593
 30
0.0
 10
-7.1093
 20
-1.1593
 30
0.0
 10
-6.7604
 20
-1.1593
 30
0.0
 10
-6.4604
 20
-0.9121
 30
0.0
 10
-6.3936
 20
-0.5696
 30
0.0
 10
-6.3936
 20
-0.5696
 30
0.0
 10
-6.3268
 20
-0.2271
 30
0.0
 10
-6.5121
 20
0.1146
 30
0.0
 10
-6.8354
 20
0.2457
 30
0.0
  0
SPLINE
  5
78
330
1F
100
AcDbEntity
  8
ROUND
 62
   250
100
AcDbSpline
210
0.0
220
0.0
230
1.0
 70
     8
 71
     3
 72
    20
 73
    16
 74
     0
 42
0.0000000001
 43
0.0000000001
 40
0.0
 40
0.0
 40
0.0
 40
0.0
 40
0.2
 40
0.2
 40
0.2
 40
0.2
 40
0.4
 40
0.4
 40
0.4
 40
0.4
 40
0.6
 40
0.6
 40
0.6
 40
0.6
 40
1.0
 40
1.0
 40
1.0
 40
1.0
 10
2.2785
 20
0.2457
 30
0.0
 10
1.9551
 20
0.1146
 30
0.0
 10
1.7699
 20
-0.2271
 30
0.0
 10
1.8366
 20
-0.5696
 30
0.0
 10
1.8366
 20
-0.5696
 30
0.0
 10
1.9034
 20
-0.9121
 30
0.0
 10
2.2034
 20
-1.1593
 30
0.0
 10
2.5524
 20
-1.1593
 30
0.0
 10
2.5524
 20
-1.1593
 30
0.0
 10
2.9013
 20
-1.1593
 30
0.0
 10
3.2013
 20
-0.9121
 30
0.0
 10
3.268
 20
-0.5696
 30
0.0
 10
3.268
 20
-0.5696
 30
0.0
 10
3.3348
 20
-0.2271
 30
0.0
 10
3.1496
 20
0.1146
 30
0.0
 10
2.8262
 20
0.2457
 30
0.0
  0
SPLINE
  5
79
330
1F
100
AcDbEntity
  8
ROUND
 62
   250
100
AcDbSpline
210
0.0
220
0.0
230
1.0
 70
    11
 71
     3
 72
    20
 73
    16
 74
     0
 42
0.0000000001
 43
0.0000000001
 40
0.0
 40
0.0
 40
0.0
 40
0.0
 40
0.2
 40
0.2
 40
0.2
 40
0.2
 40
0.4
 40
0.4
 40
0.4
 40
0.4
 40
0.6
 40
0.6
 40
0.6
 40
0.6
 40
1.0
 40
1.0
 40
1.0
 40
1.0
 10
-1.9139
 20
-15.3237
 30
0.0
 10
-1.9139
 20
-15.1224
 30
0.0
 10
-2.0771
 20
-14.9592
 30
0.0
 10
-2.2785
 20
-14.9592
 30
0.0
 10
-2.2785
 20
-14.9592
 30
0.0
 10
-2.4798
 20
-14.9592
 30
0.0
 10
-2.643
 20
-15.1224
 30
0.0
 10
-2.643
 20
-15.3237
 30
0.0
 10
-2.643
 20
-15.3237
 30
0.0
 10
-2.643
 20
-15.5251
 30
0.0
 10
-2.4798
 20
-15.6883
 30
0.0
 10
-2.2785
 20
-15.6883
 30
0.0
 10
-2.2785
 20
-15.6883
 30
0.0
 10
-2.0771
 20
-15.6883
 30
0.0
 10
-1.9139
 20
-15.5251
 30
0.0
 10
-1.9139
 20
-15.3237
 30
0.0
  0
SPLINE
  5
7A
330
1F
100
AcDbEntity
  8
ROUND
 62
   250
100
AcDbSpline
210
0.0
220
0.0
230
1.0
 70
     8
 71
     3
 72
    12
 73
     8
 74
     0
 42
0.0000000001
 43
0.0000000001
 40
0.0
 40
0.0
 40
0.0
 40
0.0
 40
0.3333333333333333
 40
0.3333333333333333
 40
0.3333333333333333
 40
0.3333333333333333
 40
1.0
 40
1.0
 40
1.0
 40
1.0
 10
1.6409
 20
27.1969
 30
0.0
 10
1.7919
 20
27.1969
 30
0.0
 10
1.9143
 20
27.3193
 30
0.0
 10
1.9143
 20
27.4704
 30
0.0
 10
1.9143
 20
27.4704
 30
0.0
 10
1.9143
 20
27.6214
 30
0.0
 10
1.7919
 20
27.7438
 30
0.0
 10
1.6409
 20
27.7438
 30
0.0
  0
SPLINE
  5
7B
330
1F
100
AcDbEntity
  8
ROUND
 62
   250
100
AcDbSpline
210
0.0
220
0.0
230
1.0
 70
     8
 71
     3
 72
    36
 73
    32
 74
     0
 42
0.0000000001
 43
0.0000000001
 40
0.0
 40
0.0
 40
0.0
 40
0.0
 40
0.1111111111111111
 40
0.1111111111111111
 40
0.1111111111111111
 40
0.1111111111111111
 40
0.2222222222222222
 40
0.2222222222222222
 40
0.2222222222222222
 40
0.2222222222222222
 40
0.3333333333333333
 40
0.3333333333333333
 40
0.3333333333333333
 40
0.3333333333333333
 40
0.4444444444444444
 40
0.4444444444444444
 40
0.4444444444444444
 40
0.4444444444444444
 40
0.5555555555555556
 40
0.5555555555555556
 40
0.5555555555555556
 40
0.5555555555555556
 40
0.6666666666666666
 40
0.6666666666666666
 40
0.6666666666666666
 40
0.6666666666666666
 40
0.7777777777777778
 40
0.7777777777777778
 40
0.7777777777777778
 40
0.7777777777777778
 40
1.0
 40
1.0
 40
1.0
 40
1.0
 10
-0.683
 20
0.2444
 30
0.0
 10
-0.683
 20
0.2444
 30
0.0
 10
-1.0815
 20
0.0574
 30
0.0
 10
-1.0815
 20
0.0574
 30
0.0
 10
-1.0815
 20
0.0574
 30
0.0
 10
-1.0815
 20
0.0574
 30
0.0
 10
-1.4815
 20
-0.0699
 30
0.0
 10
-1.4815
 20
-0.0699
 30
0.0
 10
-1.4815
 20
-0.0699
 30
0.0
 10
-1.4815
 20
-0.0699
 30
0.0
 10
-1.8805
 20
-0.1436
 30
0.0
 10
-1.8805
 20
-0.1436
 30
0.0
 10
-1.8805
 20
-0.1436
 30
0.0
 10
-1.8805
 20
-0.1436
 30
0.0
 10
-2.2785
 20
-0.1678
 30
0.0
 10
-2.2785
 20
-0.1678
 30
0.0
 10
-2.2785
 20
-0.1678
 30
0.0
 10
-2.2785
 20
-0.1678
 30
0.0
 10
-2.6764
 20
-0.1436
 30
0.0
 10
-2.6764
 20
-0.1436
 30
0.0
 10
-2.6764
 20
-0.1436
 30
0.0
 10
-2.6764
 20
-0.1436
 30
0.0
 10
-3.0755
 20
-0.0699
 30
0.0
 10
-3.0755
 20
-0.0699
 30
0.0
 10
-3.0755
 20
-0.0699
 30
0.0
 10
-3.0755
 20
-0.0699
 30
0.0
 10
-3.4754
 20
0.0574
 30
0.0
 10
-3.4754
 20
0.0574
 30
0.0
 10
-3.4754
 20
0.0574
 30
0.0
 10
-3.4754
 20
0.0574
 30
0.0
 10
-3.8739
 20
0.2444
 30
0.0
 10
-3.8739
 20
0.2444
 30
0.0
  0
SPLINE
  5
7C
330
1F
100
AcDbEntity
  8
ROUND
 62
   250
100
AcDbSpline
210
0.0
220
0.0
230
1.0
 70
    11
 71
     3
 72
    36
 73
    32
 74
     0
 42
0.0000000001
 43
0.0000000001
 40
0.0
 40
0.0
 40
0.0
 40
0.0
 40
0.1111111111111111
 40
0.1111111111111111
 40
0.1111111111111111
 40
0.1111111111111111
 40
0.2222222222222222
 40
0.2222222222222222
 40
0.2222222222222222
 40
0.2222222222222222
 40
0.3333333333333333
 40
0.3333333333333333
 40
0.3333333333333333
 40
0.3333333333333333
 40
0.4444444444444444
 40
0.4444444444444444
 40
0.4444444444444444
 40
0.4444444444444444
 40
0.5555555555555556
 40
0.5555555555555556
 40
0.5555555555555556
 40
0.5555555555555556
 40
0.6666666666666666
 40
0.6666666666666666
 40
0.6666666666666666
 40
0.6666666666666666
 40
0.7777777777777778
 40
0.7777777777777778
 40
0.7777777777777778
 40
0.7777777777777778
 40
1.0
 40
1.0
 40
1.0
 40
1.0
 10
-3.3705
 20
-0.1986
 30
0.0
 10
-3.3705
 20
-0.1986
 30
0.0
 10
-1.1558
 20
-0.2409
 30
0.0
 10
-1.1558
 20
-0.2409
 30
0.0
 10
-1.1558
 20
-0.2409
 30
0.0
 10
-1.1558
 20
-0.2409
 30
0.0
 10
-1.1727
 20
-0.6814
 30
0.0
 10
-1.1702
 20
-0.6945
 30
0.0
 10
-1.1702
 20
-0.6945
 30
0.0
 10
-1.1702
 20
-0.6945
 30
0.0
 10
-1.6067
 20
-0.7755
 30
0.0
 10
-1.6067
 20
-0.7755
 30
0.0
 10
-1.6067
 20
-0.7755
 30
0.0
 10
-1.6067
 20
-0.7755
 30
0.0
 10
-2.0535
 20
-0.8157
 30
0.0
 10
-2.0535
 20
-0.8157
 30
0.0
 10
-2.0535
 20
-0.8157
 30
0.0
 10
-2.0535
 20
-0.8157
 30
0.0
 10
-2.5036
 20
-0.8157
 30
0.0
 10
-2.5036
 20
-0.8157
 30
0.0
 10
-2.5036
 20
-0.8157
 30
0.0
 10
-2.5036
 20
-0.8157
 30
0.0
 10
-2.9503
 20
-0.7755
 30
0.0
 10
-2.9503
 20
-0.7755
 30
0.0
 10
-2.9503
 20
-0.7755
 30
0.0
 10
-2.9503
 20
-0.7755
 30
0.0
 10
-3.3867
 20
-0.6945
 30
0.0
 10
-3.3867
 20
-0.6945
 30
0.0
 10
-3.3867
 20
-0.6945
 30
0.0
 10
-3.3867
 20
-0.6945
 30
0.0
 10
-3.3705
 20
-0.1986
 30
0.0
 10
-3.3705
 20
-0.1986
 30
0.0
  0
SPLINE
  5
7D
330
1F
100
AcDbEntity
  8
ROUND
 62
   250
100
AcDbSpline
210
0.0
220
0.0
230
1.0
 70
    24
 71
     3
 72
     8
 73
     4
 74
     0
 42
0.0000000001
 43
0.0000000001
 40
0.0
 40
0.0
 40
0.0
 40
0.0
 40
1.0
 40
1.0
 40
1.0
 40
1.0
 10
-8.5696
 20
5.355
 30
0.0
 10
-8.5696
 20
5.355
 30
0.0
 10
-8.6588
 20
0.2444
 30
0.0
 10
-8.6588
 20
0.2444
 30
0.0
  0
SPLINE
  5
7E
330
1F
100
AcDbEntity
  8
ROUND
 62
   250
100
AcDbSpline
210
0.0
220
0.0
230
1.0
 70
     8
 71
     3
 72
    64
 73
    60
 74
     0
 42
0.0000000001
 43
0.0000000001
 40
0.0
 40
0.0
 40
0.0
 40
0.0
 40
0.0625
 40
0.0625
 40
0.0625
 40
0.0625
 40
0.125
 40
0.125
 40
0.125
 40
0.125
 40
0.1875
 40
0.1875
 40
0.1875
 40
0.1875
 40
0.25
 40
0.25
 40
0.25
 40
0.25
 40
0.3125
 40
0.3125
 40
0.3125
 40
0.3125
 40
0.375
 40
0.375
 40
0.375
 40
0.375
 40
0.4375
 40
0.4375
 40
0.4375
 40
0.4375
 40
0.5
 40
0.5
 40
0.5
 40
0.5
 40
0.5625
 40
0.5625
 40
0.5625
 40
0.5625
 40
0.625
 40
0.625
 40
0.625
 40
0.625
 40
0.6875
 40
0.6875
 40
0.6875
 40
0.6875
 40
0.75
 40
0.75
 40
0.75
 40
0.75
 40
0.8125
 40
0.8125
 40
0.8125
 40
0.8125
 40
0.875
 40
0.875
 40
0.875
 40
0.875
 40
1.0
 40
1.0
 40
1.0
 40
1.0
 10
-4.9663
 20
5.7171
 30
0.0
 10
-4.9663
 20
5.7171
 30
0.0
 10
-4.9663
 20
6.112
 30
0.0
 10
-4.9663
 20
6.112
 30
0.0
 10
-4.9663
 20
6.112
 30
0.0
 10
-4.9663
 20
6.112
 30
0.0
 10
-5.2046
 20
6.2957
 30
0.0
 10
-5.2046
 20
6.2957
 30
0.0
 10
-5.2046
 20
6.2957
 30
0.0
 10
-5.2046
 20
6.2957
 30
0.0
 10
-5.2046
 20
6.5436
 30
0.0
 10
-5.2046
 20
6.5436
 30
0.0
 10
-5.2046
 20
6.5436
 30
0.0
 10
-5.2046
 20
6.5436
 30
0.0
 10
-4.9663
 20
6.6997
 30
0.0
 10
-4.9663
 20
6.6997
 30
0.0
 10
-4.9663
 20
6.6997
 30
0.0
 10
-4.9663
 20
6.6997
 30
0.0
 10
-4.9663
 20
7.1589
 30
0.0
 10
-4.9663
 20
7.1589
 30
0.0
 10
-4.9663
 20
7.1589
 30
0.0
 10
-4.9663
 20
7.1589
 30
0.0
 10
-5.1942
 20
7.3276
 30
0.0
 10
-5.1942
 20
7.3276
 30
0.0
 10
-5.1942
 20
7.3276
 30
0.0
 10
-5.1942
 20
7.3276
 30
0.0
 10
-5.1942
 20
24.9071
 30
0.0
 10
-5.1942
 20
24.9071
 30
0.0
 10
-5.1942
 20
24.9071
 30
0.0
 10
-5.1942
 20
24.9071
 30
0.0
 10
0.6954
 20
24.8818
 30
0.0
 10
0.6954
 20
24.8818
 30
0.0
 10
0.6954
 20
24.8818
 30
0.0
 10
0.6954
 20
24.8818
 30
0.0
 10
0.6469
 20
7.2017
 30
0.0
 10
0.6469
 20
7.2017
 30
0.0
 10
0.6469
 20
7.2017
 30
0.0
 10
0.6469
 20
7.2017
 30
0.0
 10
0.4077
 20
7.0161
 30
0.0
 10
0.4077
 20
7.0161
 30
0.0
 10
0.4077
 20
7.0161
 30
0.0
 10
0.4077
 20
7.0161
 30
0.0
 10
0.4077
 20
6.5907
 30
0.0
 10
0.4077
 20
6.5907
 30
0.0
 10
0.4077
 20
6.5907
 30
0.0
 10
0.4077
 20
6.5907
 30
0.0
 10
0.6624
 20
6.4515
 30
0.0
 10
0.6624
 20
6.4515
 30
0.0
 10
0.6624
 20
6.4515
 30
0.0
 10
0.6624
 20
6.4515
 30
0.0
 10
0.6624
 20
6.235
 30
0.0
 10
0.6624
 20
6.235
 30
0.0
 10
0.6624
 20
6.235
 30
0.0
 10
0.6624
 20
6.235
 30
0.0
 10
0.4308
 20
6.1112
 30
0.0
 10
0.4308
 20
6.1112
 30
0.0
 10
0.4308
 20
6.1112
 30
0.0
 10
0.4308
 20
6.1112
 30
0.0
 10
0.4154
 20
5.6936
 30
0.0
 10
0.4154
 20
5.6936
 30
0.0
  0
SPLINE
  5
7F
330
1F
100
AcDbEntity
  8
ROUND
 62
   250
100
AcDbSpline
210
0.0
220
0.0
230
1.0
 70
     8
 71
     3
 72
    28
 73
    24
 74
     0
 42
0.0000000001
 43
0.0000000001
 40
0.0
 40
0.0
 40
0.0
 40
0.0
 40
0.1428571428571428
 40
0.1428571428571428
 40
0.1428571428571428
 40
0.1428571428571428
 40
0.2857142857142857
 40
0.2857142857142857
 40
0.2857142857142857
 40
0.2857142857142857
 40
0.4285714285714285
 40
0.4285714285714285
 40
0.4285714285714285
 40
0.4285714285714285
 40
0.5714285714285714
 40
0.5714285714285714
 40
0.5714285714285714
 40
0.5714285714285714
 40
0.7142857142857143
 40
0.7142857142857143
 40
0.7142857142857143
 40
0.7142857142857143
 40
1.0
 40
1.0
 40
1.0
 40
1.0
 10
-5.1952
 20
-1.5239
 30
0.0
 10
-5.1952
 20
-1.5239
 30
0.0
 10
-5.1952
 20
-0.8208
 30
0.0
 10
-5.1952
 20
-0.8208
 30
0.0
 10
-5.1952
 20
-0.8208
 30
0.0
 10
-5.1482
 20
-0.8017
 30
0.0
 10
-4.9782
 20
-0.6712
 30
0.0
 10
-4.9782
 20
-0.6712
 30
0.0
 10
-4.9782
 20
-0.6712
 30
0.0
 10
-4.9782
 20
-0.6712
 30
0.0
 10
-4.9782
 20
-0.1943
 30
0.0
 10
-4.9782
 20
-0.1943
 30
0.0
 10
-4.9782
 20
-0.1943
 30
0.0
 10
-4.9782
 20
-0.1943
 30
0.0
 10
-5.2162
 20
-0.1035
 30
0.0
 10
-5.2162
 20
-0.1035
 30
0.0
 10
-5.2162
 20
-0.1035
 30
0.0
 10
-5.2162
 20
-0.1035
 30
0.0
 10
-5.2162
 20
0.2088
 30
0.0
 10
-5.2162
 20
0.2088
 30
0.0
 10
-5.2162
 20
0.2088
 30
0.0
 10
-5.2162
 20
0.2088
 30
0.0
 10
-5.0009
 20
0.2397
 30
0.0
 10
-5.0009
 20
0.2397
 30
0.0
  0
SPLINE
  5
80
330
1F
100
AcDbEntity
  8
ROUND
 62
   250
100
AcDbSpline
210
0.0
220
0.0
230
1.0
 70
    24
 71
     3
 72
     8
 73
     4
 74
     0
 42
0.0000000001
 43
0.0000000001
 40
0.0
 40
0.0
 40
0.0
 40
0.0
 40
1.0
 40
1.0
 40
1.0
 40
1.0
 10
-4.9217
 20
-1.5239
 30
0.0
 10
-4.9217
 20
-1.5239
 30
0.0
 10
0.3648
 20
-1.5239
 30
0.0
 10
0.3648
 20
-1.5239
 30
0.0
  0
SPLINE
  5
81
330
1F
100
AcDbEntity
  8
ROUND
  6
NEW_LINE1
 62
   250
100
AcDbSpline
210
0.0
220
0.0
230
1.0
 70
    24
 71
     3
 72
     8
 73
     4
 74
     0
 42
0.0000000001
 43
0.0000000001
 40
0.0
 40
0.0
 40
0.0
 40
0.0
 40
1.0
 40
1.0
 40
1.0
 40
1.0
 10
-2.2785
 20
-39.6782
 30
0.0
 10
-2.2785
 20
-39.6782
 30
0.0
 10
-2.2785
 20
26.5423
 30
0.0
 10
-2.2785
 20
26.5423
 30
0.0
  0
SPLINE
  5
83
330
1F
100
AcDbEntity
  8
ROUND
 62
   250
100
AcDbSpline
210
0.0
220
0.0
230
1.0
 70
    24
 71
     3
 72
     8
 73
     4
 74
     0
 42
0.0000000001
 43
0.0000000001
 40
0.0
 40
0.0
 40
0.0
 40
0.0
 40
1.0
 40
1.0
 40
1.0
 40
1.0
 10
4.1019
 20
0.2444
 30
0.0
 10
4.1019
 20
0.2444
 30
0.0
 10
-8.6588
 20
0.2444
 30
0.0
 10
-8.6588
 20
0.2444
 30
0.0
  0
SPLINE
  5
84
330
1F
100
AcDbEntity
  8
ROUND
 62
   250
100
AcDbSpline
210
0.0
220
0.0
230
1.0
 70
    24
 71
     3
 72
     8
 73
     4
 74
     0
 42
0.0000000001
 43
0.0000000001
 40
0.0
 40
0.0
 40
0.0
 40
0.0
 40
1.0
 40
1.0
 40
1.0
 40
1.0
 10
4.0126
 20
5.355
 30
0.0
 10
4.0126
 20
5.355
 30
0.0
 10
4.1019
 20
0.2444
 30
0.0
 10
4.1019
 20
0.2444
 30
0.0
  0
SPLINE
  5
85
330
1F
100
AcDbEntity
  8
ROUND
 62
   250
100
AcDbSpline
210
0.0
220
0.0
230
1.0
 70
    24
 71
     3
 72
     8
 73
     4
 74
     0
 42
0.0000000001
 43
0.0000000001
 40
0.0
 40
0.0
 40
0.0
 40
0.0
 40
1.0
 40
1.0
 40
1.0
 40
1.0
 10
-4.6483
 20
25.4651
 30
0.0
 10
-4.6483
 20
25.4651
 30
0.0
 10
-4.4448
 20
27.7915
 30
0.0
 10
-4.4448
 20
27.7915
 30
0.0
  0
SPLINE
  5
86
330
1F
100
AcDbEntity
  8
ROUND
 62
   250
100
AcDbSpline
210
0.0
220
0.0
230
1.0
 70
    24
 71
     3
 72
     8
 73
     4
 74
     0
 42
0.0000000001
 43
0.0000000001
 40
0.0
 40
0.0
 40
0.0
 40
0.0
 40
1.0
 40
1.0
 40
1.0
 40
1.0
 10
-7.9215
 20
0.1627
 30
0.0
 10
-7.9215
 20
0.1627
 30
0.0
 10
-8.2832
 20
-1.8885
 30
0.0
 10
-8.2832
 20
-1.8885
 30
0.0
  0
SPLINE
  5
87
330
1F
100
AcDbEntity
  8
ROUND
 62
   250
100
AcDbSpline
210
0.0
220
0.0
230
1.0
 70
    24
 71
     3
 72
     8
 73
     4
 74
     0
 42
0.0000000001
 43
0.0000000001
 40
0.0
 40
0.0
 40
0.0
 40
0.0
 40
1.0
 40
1.0
 40
1.0
 40
1.0
 10
-7.8677
 20
0.1551
 30
0.0
 10
-7.8677
 20
0.1551
 30
0.0
 10
-8.228
 20
-1.8885
 30
0.0
 10
-8.228
 20
-1.8885
 30
0.0
  0
SPLINE
  5
88
330
1F
100
AcDbEntity
  8
ROUND
 62
   250
100
AcDbSpline
210
0.0
220
0.0
230
1.0
 70
    24
 71
     3
 72
     8
 73
     4
 74
     0
 42
0.0000000001
 43
0.0000000001
 40
0.0
 40
0.0
 40
0.0
 40
0.0
 40
1.0
 40
1.0
 40
1.0
 40
1.0
 10
-6.0549
 20
-1.5239
 30
0.0
 10
-6.0549
 20
-1.5239
 30
0.0
 10
-6.3509
 20
0.1551
 30
0.0
 10
-6.3509
 20
0.1551
 30
0.0
  0
SPLINE
  5
89
330
1F
100
AcDbEntity
  8
ROUND
 62
   250
100
AcDbSpline
210
0.0
220
0.0
230
1.0
 70
    24
 71
     3
 72
     8
 73
     4
 74
     0
 42
0.0000000001
 43
0.0000000001
 40
0.0
 40
0.0
 40
0.0
 40
0.0
 40
1.0
 40
1.0
 40
1.0
 40
1.0
 10
-5.9997
 20
-1.5239
 30
0.0
 10
-5.9997
 20
-1.5239
 30
0.0
 10
-6.2971
 20
0.1627
 30
0.0
 10
-6.2971
 20
0.1627
 30
0.0
  0
SPLINE
  5
8A
330
1F
100
AcDbEntity
  8
ROUND
 62
   250
100
AcDbSpline
210
0.0
220
0.0
230
1.0
 70
    24
 71
     3
 72
     8
 73
     4
 74
     0
 42
0.0000000001
 43
0.0000000001
 40
0.0
 40
0.0
 40
0.0
 40
0.0
 40
1.0
 40
1.0
 40
1.0
 40
1.0
 10
-5.8332
 20
23.3687
 30
0.0
 10
-5.8332
 20
23.3687
 30
0.0
 10
-5.8332
 20
22.8218
 30
0.0
 10
-5.8332
 20
22.8218
 30
0.0
  0
SPLINE
  5
8B
330
1F
100
AcDbEntity
  8
ROUND
 62
   250
100
AcDbSpline
210
0.0
220
0.0
230
1.0
 70
    24
 71
     3
 72
     8
 73
     4
 74
     0
 42
0.0000000001
 43
0.0000000001
 40
0.0
 40
0.0
 40
0.0
 40
0.0
 40
1.0
 40
1.0
 40
1.0
 40
1.0
 10
-4.6483
 20
24.9182
 30
0.0
 10
-4.6483
 20
24.9182
 30
0.0
 10
-4.6483
 20
25.4651
 30
0.0
 10
-4.6483
 20
25.4651
 30
0.0
  0
SPLINE
  5
8C
330
1F
100
AcDbEntity
  8
ROUND
 62
   250
100
AcDbSpline
210
0.0
220
0.0
230
1.0
 70
    24
 71
     3
 72
     8
 73
     4
 74
     0
 42
0.0000000001
 43
0.0000000001
 40
0.0
 40
0.0
 40
0.0
 40
0.0
 40
1.0
 40
1.0
 40
1.0
 40
1.0
 10
5.1988
 20
-1.8885
 30
0.0
 10
5.1988
 20
-1.8885
 30
0.0
 10
0.7294
 20
-1.8885
 30
0.0
 10
0.7294
 20
-1.8885
 30
0.0
  0
SPLINE
  5
8D
330
1F
100
AcDbEntity
  8
ROUND
 62
   250
100
AcDbSpline
210
0.0
220
0.0
230
1.0
 70
    24
 71
     3
 72
     8
 73
     4
 74
     0
 42
0.0000000001
 43
0.0000000001
 40
0.0
 40
0.0
 40
0.0
 40
0.0
 40
1.0
 40
1.0
 40
1.0
 40
1.0
 10
-5.2863
 20
-1.8885
 30
0.0
 10
-5.2863
 20
-1.8885
 30
0.0
 10
-9.7558
 20
-1.8885
 30
0.0
 10
-9.7558
 20
-1.8885
 30
0.0
  0
SPLINE
  5
8E
330
1F
100
AcDbEntity
  8
ROUND
 62
   250
100
AcDbSpline
210
0.0
220
0.0
230
1.0
 70
    24
 71
     3
 72
     8
 73
     4
 74
     0
 42
0.0000000001
 43
0.0000000001
 40
0.0
 40
0.0
 40
0.0
 40
0.0
 40
1.0
 40
1.0
 40
1.0
 40
1.0
 10
1.4818
 20
-1.5239
 30
0.0
 10
1.4818
 20
-1.5239
 30
0.0
 10
0.9246
 20
-1.5239
 30
0.0
 10
0.9246
 20
-1.5239
 30
0.0
  0
SPLINE
  5
8F
330
1F
100
AcDbEntity
  8
ROUND
 62
   250
100
AcDbSpline
210
0.0
220
0.0
230
1.0
 70
    24
 71
     3
 72
     8
 73
     4
 74
     0
 42
0.0000000001
 43
0.0000000001
 40
0.0
 40
0.0
 40
0.0
 40
0.0
 40
1.0
 40
1.0
 40
1.0
 40
1.0
 10
-5.4816
 20
-1.5239
 30
0.0
 10
-5.4816
 20
-1.5239
 30
0.0
 10
-6.0549
 20
-1.5239
 30
0.0
 10
-6.0549
 20
-1.5239
 30
0.0
  0
SPLINE
  5
90
330
1F
100
AcDbEntity
  8
ROUND
 62
   250
100
AcDbSpline
210
0.0
220
0.0
230
1.0
 70
    24
 71
     3
 72
     8
 73
     4
 74
     0
 42
0.0000000001
 43
0.0000000001
 40
0.0
 40
0.0
 40
0.0
 40
0.0
 40
1.0
 40
1.0
 40
1.0
 40
1.0
 10
-2.5519
 20
30.5915
 30
0.0
 10
-2.5519
 20
30.5915
 30
0.0
 10
-2.5519
 20
33.2127
 30
0.0
 10
-2.5519
 20
33.2127
 30
0.0
  0
SPLINE
  5
91
330
1F
100
AcDbEntity
  8
ROUND
 62
   250
100
AcDbSpline
210
0.0
220
0.0
230
1.0
 70
    24
 71
     3
 72
     8
 73
     4
 74
     0
 42
0.0000000001
 43
0.0000000001
 40
0.0
 40
0.0
 40
0.0
 40
0.0
 40
1.0
 40
1.0
 40
1.0
 40
1.0
 10
0.0914
 20
25.4651
 30
0.0
 10
0.0914
 20
25.4651
 30
0.0
 10
0.0914
 20
24.9182
 30
0.0
 10
0.0914
 20
24.9182
 30
0.0
  0
SPLINE
  5
92
330
1F
100
AcDbEntity
  8
ROUND
 62
   250
100
AcDbSpline
210
0.0
220
0.0
230
1.0
 70
    24
 71
     3
 72
     8
 73
     4
 74
     0
 42
0.0000000001
 43
0.0000000001
 40
0.0
 40
0.0
 40
0.0
 40
0.0
 40
1.0
 40
1.0
 40
1.0
 40
1.0
 10
1.2763
 20
22.8218
 30
0.0
 10
1.2763
 20
22.8218
 30
0.0
 10
1.2763
 20
23.3687
 30
0.0
 10
1.2763
 20
23.3687
 30
0.0
  0
SPLINE
  5
93
330
1F
100
AcDbEntity
  8
ROUND
 62
   250
100
AcDbSpline
210
0.0
220
0.0
230
1.0
 70
    24
 71
     3
 72
     8
 73
     4
 74
     0
 42
0.0000000001
 43
0.0000000001
 40
0.0
 40
0.0
 40
0.0
 40
0.0
 40
1.0
 40
1.0
 40
1.0
 40
1.0
 10
1.724
 20
0.1627
 30
0.0
 10
1.724
 20
0.1627
 30
0.0
 10
1.4266
 20
-1.5239
 30
0.0
 10
1.4266
 20
-1.5239
 30
0.0
  0
SPLINE
  5
94
330
1F
100
AcDbEntity
  8
ROUND
 62
   250
100
AcDbSpline
210
0.0
220
0.0
230
1.0
 70
    24
 71
     3
 72
     8
 73
     4
 74
     0
 42
0.0000000001
 43
0.0000000001
 40
0.0
 40
0.0
 40
0.0
 40
0.0
 40
1.0
 40
1.0
 40
1.0
 40
1.0
 10
1.7779
 20
0.1551
 30
0.0
 10
1.7779
 20
0.1551
 30
0.0
 10
1.4818
 20
-1.5239
 30
0.0
 10
1.4818
 20
-1.5239
 30
0.0
  0
SPLINE
  5
95
330
1F
100
AcDbEntity
  8
ROUND
 62
   250
100
AcDbSpline
210
0.0
220
0.0
230
1.0
 70
    24
 71
     3
 72
     8
 73
     4
 74
     0
 42
0.0000000001
 43
0.0000000001
 40
0.0
 40
0.0
 40
0.0
 40
0.0
 40
1.0
 40
1.0
 40
1.0
 40
1.0
 10
-8.2051
 20
5.7133
 30
0.0
 10
-8.2051
 20
5.7133
 30
0.0
 10
3.6481
 20
5.7133
 30
0.0
 10
3.6481
 20
5.7133
 30
0.0
  0
SPLINE
  5
96
330
1F
100
AcDbEntity
  8
ROUND
 62
   250
100
AcDbSpline
210
0.0
220
0.0
230
1.0
 70
    24
 71
     3
 72
     8
 73
     4
 74
     0
 42
0.0000000001
 43
0.0000000001
 40
0.0
 40
0.0
 40
0.0
 40
0.0
 40
1.0
 40
1.0
 40
1.0
 40
1.0
 10
3.6871
 20
-1.8885
 30
0.0
 10
3.6871
 20
-1.8885
 30
0.0
 10
3.3268
 20
0.1551
 30
0.0
 10
3.3268
 20
0.1551
 30
0.0
  0
SPLINE
  5
97
330
1F
100
AcDbEntity
  8
ROUND
 62
   250
100
AcDbSpline
210
0.0
220
0.0
230
1.0
 70
    24
 71
     3
 72
     8
 73
     4
 74
     0
 42
0.0000000001
 43
0.0000000001
 40
0.0
 40
0.0
 40
0.0
 40
0.0
 40
1.0
 40
1.0
 40
1.0
 40
1.0
 10
3.7423
 20
-1.8885
 30
0.0
 10
3.7423
 20
-1.8885
 30
0.0
 10
3.3806
 20
0.1627
 30
0.0
 10
3.3806
 20
0.1627
 30
0.0
  0
SPLINE
  5
98
330
1F
100
AcDbEntity
  8
ROUND
 62
   250
100
AcDbSpline
210
0.0
220
0.0
230
1.0
 70
    24
 71
     3
 72
     8
 73
     4
 74
     0
 42
0.0000000001
 43
0.0000000001
 40
0.0
 40
0.0
 40
0.0
 40
0.0
 40
1.0
 40
1.0
 40
1.0
 40
1.0
 10
-2.574
 20
28.1305
 30
0.0
 10
-2.574
 20
28.1305
 30
0.0
 10
0.0914
 20
25.4651
 30
0.0
 10
0.0914
 20
25.4651
 30
0.0
  0
SPLINE
  5
99
330
1F
100
AcDbEntity
  8
ROUND
 62
   250
100
AcDbSpline
210
0.0
220
0.0
230
1.0
 70
    24
 71
     3
 72
     8
 73
     4
 74
     0
 42
0.0000000001
 43
0.0000000001
 40
0.0
 40
0.0
 40
0.0
 40
0.0
 40
1.0
 40
1.0
 40
1.0
 40
1.0
 10
1.2763
 20
22.8218
 30
0.0
 10
1.2763
 20
22.8218
 30
0.0
 10
0.7294
 20
22.8218
 30
0.0
 10
0.7294
 20
22.8218
 30
0.0
  0
SPLINE
  5
9A
330
1F
100
AcDbEntity
  8
ROUND
 62
   250
100
AcDbSpline
210
0.0
220
0.0
230
1.0
 70
    24
 71
     3
 72
     8
 73
     4
 74
     0
 42
0.0000000001
 43
0.0000000001
 40
0.0
 40
0.0
 40
0.0
 40
0.0
 40
1.0
 40
1.0
 40
1.0
 40
1.0
 10
-5.2863
 20
22.8218
 30
0.0
 10
-5.2863
 20
22.8218
 30
0.0
 10
-5.8332
 20
22.8218
 30
0.0
 10
-5.8332
 20
22.8218
 30
0.0
  0
SPLINE
  5
9B
330
1F
100
AcDbEntity
  8
ROUND
 62
   250
100
AcDbSpline
210
0.0
220
0.0
230
1.0
 70
    24
 71
     3
 72
     8
 73
     4
 74
     0
 42
0.0000000001
 43
0.0000000001
 40
0.0
 40
0.0
 40
0.0
 40
0.0
 40
1.0
 40
1.0
 40
1.0
 40
1.0
 10
-5.8332
 20
23.3687
 30
0.0
 10
-5.8332
 20
23.3687
 30
0.0
 10
-5.2863
 20
23.3687
 30
0.0
 10
-5.2863
 20
23.3687
 30
0.0
  0
SPLINE
  5
9C
330
1F
100
AcDbEntity
  8
ROUND
 62
   250
100
AcDbSpline
210
0.0
220
0.0
230
1.0
 70
    24
 71
     3
 72
     8
 73
     4
 74
     0
 42
0.0000000001
 43
0.0000000001
 40
0.0
 40
0.0
 40
0.0
 40
0.0
 40
1.0
 40
1.0
 40
1.0
 40
1.0
 10
0.7294
 20
23.3687
 30
0.0
 10
0.7294
 20
23.3687
 30
0.0
 10
1.2763
 20
23.3687
 30
0.0
 10
1.2763
 20
23.3687
 30
0.0
  0
SPLINE
  5
9D
330
1F
100
AcDbEntity
  8
ROUND
 62
   250
100
AcDbSpline
210
0.0
220
0.0
230
1.0
 70
    24
 71
     3
 72
     8
 73
     4
 74
     0
 42
0.0000000001
 43
0.0000000001
 40
0.0
 40
0.0
 40
0.0
 40
0.0
 40
1.0
 40
1.0
 40
1.0
 40
1.0
 10
-5.2863
 20
25.4651
 30
0.0
 10
-5.2863
 20
25.4651
 30
0.0
 10
-4.6483
 20
25.4651
 30
0.0
 10
-4.6483
 20
25.4651
 30
0.0
  0
SPLINE
  5
9E
330
1F
100
AcDbEntity
  8
ROUND
 62
   250
100
AcDbSpline
210
0.0
220
0.0
230
1.0
 70
    24
 71
     3
 72
     8
 73
     4
 74
     0
 42
0.0000000001
 43
0.0000000001
 40
0.0
 40
0.0
 40
0.0
 40
0.0
 40
1.0
 40
1.0
 40
1.0
 40
1.0
 10
0.0914
 20
25.4651
 30
0.0
 10
0.0914
 20
25.4651
 30
0.0
 10
0.7294
 20
25.4651
 30
0.0
 10
0.7294
 20
25.4651
 30
0.0
  0
SPLINE
  5
9F
330
1F
100
AcDbEntity
  8
ROUND
 62
   250
100
AcDbSpline
210
0.0
220
0.0
230
1.0
 70
    24
 71
     3
 72
     8
 73
     4
 74
     0
 42
0.0000000001
 43
0.0000000001
 40
0.0
 40
0.0
 40
0.0
 40
0.0
 40
1.0
 40
1.0
 40
1.0
 40
1.0
 10
-3.9
 20
28.2907
 30
0.0
 10
-3.9
 20
28.2907
 30
0.0
 10
-2.9607
 20
28.2907
 30
0.0
 10
-2.9607
 20
28.2907
 30
0.0
  0
SPLINE
  5
A0
330
1F
100
AcDbEntity
  8
ROUND
 62
   250
100
AcDbSpline
210
0.0
220
0.0
230
1.0
 70
    24
 71
     3
 72
     8
 73
     4
 74
     0
 42
0.0000000001
 43
0.0000000001
 40
0.0
 40
0.0
 40
0.0
 40
0.0
 40
1.0
 40
1.0
 40
1.0
 40
1.0
 10
-3.4634
 20
34.1242
 30
0.0
 10
-3.4634
 20
34.1242
 30
0.0
 10
-4.5572
 20
34.1242
 30
0.0
 10
-4.5572
 20
34.1242
 30
0.0
  0
SPLINE
  5
A1
330
1F
100
AcDbEntity
  8
ROUND
 62
   250
100
AcDbSpline
210
0.0
220
0.0
230
1.0
 70
     8
 71
     3
 72
     8
 73
     4
 74
     0
 42
0.0000000001
 43
0.0000000001
 40
0.0
 40
0.0
 40
0.0
 40
0.0
 40
1.0
 40
1.0
 40
1.0
 40
1.0
 10
-9.7558
 20
-1.8885
 30
0.0
 10
-9.8552
 20
-1.8885
 30
0.0
 10
-9.9363
 20
-1.9682
 30
0.0
 10
-9.938
 20
-2.0676
 30
0.0
  0
SPLINE
  5
A2
330
1F
100
AcDbEntity
  8
ROUND
 62
   250
100
AcDbSpline
210
0.0
220
0.0
230
1.0
 70
     8
 71
     3
 72
     8
 73
     4
 74
     0
 42
0.0000000001
 43
0.0000000001
 40
0.0
 40
0.0
 40
0.0
 40
0.0
 40
1.0
 40
1.0
 40
1.0
 40
1.0
 10
-4.5572
 20
34.1242
 30
0.0
 10
-5.0605
 20
34.1242
 30
0.0
 10
-5.4686
 20
33.7161
 30
0.0
 10
-5.4686
 20
33.2127
 30
0.0
  0
SPLINE
  5
A3
330
1F
100
AcDbEntity
  8
ROUND
 62
   250
100
AcDbSpline
210
0.0
220
0.0
230
1.0
 70
     8
 71
     3
 72
     8
 73
     4
 74
     0
 42
0.0000000001
 43
0.0000000001
 40
0.0
 40
0.0
 40
0.0
 40
0.0
 40
1.0
 40
1.0
 40
1.0
 40
1.0
 10
-2.5519
 20
33.2127
 30
0.0
 10
-2.5519
 20
33.7161
 30
0.0
 10
-2.96
 20
34.1242
 30
0.0
 10
-3.4634
 20
34.1242
 30
0.0
  0
SPLINE
  5
A4
330
1F
100
AcDbEntity
  8
ROUND
 62
   250
100
AcDbSpline
210
0.0
220
0.0
230
1.0
 70
     8
 71
     3
 72
     8
 73
     4
 74
     0
 42
0.0000000001
 43
0.0000000001
 40
0.0
 40
0.0
 40
0.0
 40
0.0
 40
1.0
 40
1.0
 40
1.0
 40
1.0
 10
-3.9
 20
28.2907
 30
0.0
 10
-4.1835
 20
28.2907
 30
0.0
 10
-4.4201
 20
28.074
 30
0.0
 10
-4.4448
 20
27.7915
 30
0.0
  0
SPLINE
  5
A5
330
1F
100
AcDbEntity
  8
ROUND
 62
   250
100
AcDbSpline
210
0.0
220
0.0
230
1.0
 70
     8
 71
     3
 72
     8
 73
     4
 74
     0
 42
0.0000000001
 43
0.0000000001
 40
0.0
 40
0.0
 40
0.0
 40
0.0
 40
1.0
 40
1.0
 40
1.0
 40
1.0
 10
-2.574
 20
28.1305
 30
0.0
 10
-2.6766
 20
28.2331
 30
0.0
 10
-2.8157
 20
28.2907
 30
0.0
 10
-2.9607
 20
28.2907
 30
0.0
  0
SPLINE
  5
A6
330
1F
100
AcDbEntity
  8
ROUND
 62
   250
100
AcDbSpline
210
0.0
220
0.0
230
1.0
 70
     8
 71
     3
 72
     8
 73
     4
 74
     0
 42
0.0000000001
 43
0.0000000001
 40
0.0
 40
0.0
 40
0.0
 40
0.0
 40
1.0
 40
1.0
 40
1.0
 40
1.0
 10
-8.2051
 20
5.7133
 30
0.0
 10
-8.404
 20
5.7133
 30
0.0
 10
-8.5661
 20
5.5539
 30
0.0
 10
-8.5696
 20
5.355
 30
0.0
  0
SPLINE
  5
A7
330
1F
100
AcDbEntity
  8
ROUND
 62
   250
100
AcDbSpline
210
0.0
220
0.0
230
1.0
 70
     8
 71
     3
 72
     8
 73
     4
 74
     0
 42
0.0000000001
 43
0.0000000001
 40
0.0
 40
0.0
 40
0.0
 40
0.0
 40
1.0
 40
1.0
 40
1.0
 40
1.0
 10
5.3811
 20
-2.0676
 30
0.0
 10
5.3793
 20
-1.9682
 30
0.0
 10
5.2982
 20
-1.8885
 30
0.0
 10
5.1988
 20
-1.8885
 30
0.0
  0
SPLINE
  5
A8
330
1F
100
AcDbEntity
  8
ROUND
 62
   250
100
AcDbSpline
210
0.0
220
0.0
230
1.0
 70
     8
 71
     3
 72
     8
 73
     4
 74
     0
 42
0.0000000001
 43
0.0000000001
 40
0.0
 40
0.0
 40
0.0
 40
0.0
 40
1.0
 40
1.0
 40
1.0
 40
1.0
 10
4.0126
 20
5.355
 30
0.0
 10
4.0092
 20
5.5539
 30
0.0
 10
3.847
 20
5.7133
 30
0.0
 10
3.6481
 20
5.7133
 30
0.0
  0
SPLINE
  5
A9
330
1F
100
AcDbEntity
  8
ROUND
 62
   250
100
AcDbSpline
210
0.0
220
0.0
230
1.0
 70
     8
 71
     3
 72
    80
 73
    76
 74
     0
 42
0.0000000001
 43
0.0000000001
 40
0.0
 40
0.0
 40
0.0
 40
0.0
 40
0.05
 40
0.05
 40
0.05
 40
0.05
 40
0.1
 40
0.1
 40
0.1
 40
0.1
 40
0.15
 40
0.15
 40
0.15
 40
0.15
 40
0.2
 40
0.2
 40
0.2
 40
0.2
 40
0.25
 40
0.25
 40
0.25
 40
0.25
 40
0.3
 40
0.3
 40
0.3
 40
0.3
 40
0.35
 40
0.35
 40
0.35
 40
0.35
 40
0.4
 40
0.4
 40
0.4
 40
0.4
 40
0.45
 40
0.45
 40
0.45
 40
0.45
 40
0.5
 40
0.5
 40
0.5
 40
0.5
 40
0.55
 40
0.55
 40
0.55
 40
0.55
 40
0.6
 40
0.6
 40
0.6
 40
0.6
 40
0.65
 40
0.65
 40
0.65
 40
0.65
 40
0.7
 40
0.7
 40
0.7
 40
0.7
 40
0.75
 40
0.75
 40
0.75
 40
0.75
 40
0.8
 40
0.8
 40
0.8
 40
0.8
 40
0.85
 40
0.85
 40
0.85
 40
0.85
 40
0.9
 40
0.9
 40
0.9
 40
0.9
 40
1.0
 40
1.0
 40
1.0
 40
1.0
 10
-1.6189
 20
-16.4125
 30
0.0
 10
-1.6189
 20
-16.4125
 30
0.0
 10
-1.6096
 20
-15.7946
 30
0.0
 10
-1.6096
 20
-15.7946
 30
0.0
 10
-1.6096
 20
-15.7946
 30
0.0
 10
-1.6096
 20
-15.7946
 30
0.0
 10
-2.329
 20
-15.7852
 30
0.0
 10
-2.329
 20
-15.7852
 30
0.0
 10
-2.329
 20
-15.7852
 30
0.0
 10
-2.329
 20
-15.7852
 30
0.0
 10
-2.4878
 20
-15.7758
 30
0.0
 10
-2.4878
 20
-15.7758
 30
0.0
 10
-2.4878
 20
-15.7758
 30
0.0
 10
-2.4878
 20
-15.7758
 30
0.0
 10
-2.6279
 20
-15.6541
 30
0.0
 10
-2.6279
 20
-15.6541
 30
0.0
 10
-2.6279
 20
-15.6541
 30
0.0
 10
-2.6279
 20
-15.6541
 30
0.0
 10
-2.7027
 20
-15.5043
 30
0.0
 10
-2.7027
 20
-15.5043
 30
0.0
 10
-2.7027
 20
-15.5043
 30
0.0
 10
-2.7027
 20
-15.5043
 30
0.0
 10
-2.7027
 20
-15.3546
 30
0.0
 10
-2.7027
 20
-15.3546
 30
0.0
 10
-2.7027
 20
-15.3546
 30
0.0
 10
-2.7027
 20
-15.3546
 30
0.0
 10
-2.6466
 20
-15.1205
 30
0.0
 10
-2.6466
 20
-15.1205
 30
0.0
 10
-2.6466
 20
-15.1205
 30
0.0
 10
-2.6466
 20
-15.1205
 30
0.0
 10
-2.5345
 20
-14.9801
 30
0.0
 10
-2.5345
 20
-14.9801
 30
0.0
 10
-2.5345
 20
-14.9801
 30
0.0
 10
-2.5345
 20
-14.9801
 30
0.0
 10
-2.385
 20
-14.9052
 30
0.0
 10
-2.385
 20
-14.9052
 30
0.0
 10
-2.385
 20
-14.9052
 30
0.0
 10
-2.385
 20
-14.9052
 30
0.0
 10
-1.1551
 20
-14.9227
 30
0.0
 10
-1.1551
 20
-14.9227
 30
0.0
 10
-1.1551
 20
-14.9227
 30
0.0
 10
-1.1551
 20
-14.9227
 30
0.0
 10
-1.0847
 20
-14.9297
 30
0.0
 10
-1.0847
 20
-14.9297
 30
0.0
 10
-1.0847
 20
-14.9297
 30
0.0
 10
-1.0847
 20
-14.9297
 30
0.0
 10
-1.0172
 20
-14.9505
 30
0.0
 10
-1.0172
 20
-14.9505
 30
0.0
 10
-1.0172
 20
-14.9505
 30
0.0
 10
-1.0172
 20
-14.9505
 30
0.0
 10
-0.9551
 20
-14.9842
 30
0.0
 10
-0.9551
 20
-14.9842
 30
0.0
 10
-0.9551
 20
-14.9842
 30
0.0
 10
-0.9551
 20
-14.9842
 30
0.0
 10
-0.9006
 20
-15.0295
 30
0.0
 10
-0.9006
 20
-15.0295
 30
0.0
 10
-0.9006
 20
-15.0295
 30
0.0
 10
-0.9006
 20
-15.0295
 30
0.0
 10
-0.856
 20
-15.0847
 30
0.0
 10
-0.856
 20
-15.0847
 30
0.0
 10
-0.856
 20
-15.0847
 30
0.0
 10
-0.856
 20
-15.0847
 30
0.0
 10
-0.8229
 20
-15.1478
 30
0.0
 10
-0.8229
 20
-15.1478
 30
0.0
 10
-0.8229
 20
-15.1478
 30
0.0
 10
-0.8229
 20
-15.1478
 30
0.0
 10
-0.8024
 20
-15.2162
 30
0.0
 10
-0.8024
 20
-15.2162
 30
0.0
 10
-0.8024
 20
-15.2162
 30
0.0
 10
-0.8024
 20
-15.2162
 30
0.0
 10
-0.7955
 20
-15.2873
 30
0.0
 10
-0.7955
 20
-15.2873
 30
0.0
 10
-0.7955
 20
-15.2873
 30
0.0
 10
-0.7955
 20
-15.2873
 30
0.0
 10
-0.7997
 20
-16.4446
 30
0.0
 10
-0.7997
 20
-16.4446
 30
0.0
  0
SPLINE
  5
AA
330
1F
100
AcDbEntity
  8
ROUND
 62
   250
100
AcDbSpline
210
0.0
220
0.0
230
1.0
 70
     8
 71
     3
 72
    16
 73
    12
 74
     0
 42
0.0000000001
 43
0.0000000001
 40
0.0
 40
0.0
 40
0.0
 40
0.0
 40
0.25
 40
0.25
 40
0.25
 40
0.25
 40
0.5
 40
0.5
 40
0.5
 40
0.5
 40
1.0
 40
1.0
 40
1.0
 40
1.0
 10
-9.7077
 20
-23.7055
 30
0.0
 10
-9.7077
 20
-23.7055
 30
0.0
 10
-9.6726
 20
-22.9612
 30
0.0
 10
-9.6726
 20
-22.9612
 30
0.0
 10
-9.6726
 20
-22.9612
 30
0.0
 10
-9.6726
 20
-22.9612
 30
0.0
 10
5.1471
 20
-22.9612
 30
0.0
 10
5.1471
 20
-22.9612
 30
0.0
 10
5.1471
 20
-22.9612
 30
0.0
 10
5.1471
 20
-22.9612
 30
0.0
 10
5.1356
 20
-23.6586
 30
0.0
 10
5.1356
 20
-23.6586
 30
0.0
  0
SPLINE
  5
AB
330
1F
100
AcDbEntity
  8
ROUND
 62
   250
100
AcDbSpline
210
0.0
220
0.0
230
1.0
 70
     8
 71
     3
 72
    52
 73
    48
 74
     0
 42
0.0000000001
 43
0.0000000001
 40
0.0
 40
0.0
 40
0.0
 40
0.0
 40
0.0769230769230769
 40
0.0769230769230769
 40
0.0769230769230769
 40
0.0769230769230769
 40
0.1538461538461539
 40
0.1538461538461539
 40
0.1538461538461539
 40
0.1538461538461539
 40
0.2307692307692308
 40
0.2307692307692308
 40
0.2307692307692308
 40
0.2307692307692308
 40
0.3076923076923077
 40
0.3076923076923077
 40
0.3076923076923077
 40
0.3076923076923077
 40
0.3846153846153846
 40
0.3846153846153846
 40
0.3846153846153846
 40
0.3846153846153846
 40
0.4615384615384616
 40
0.4615384615384616
 40
0.4615384615384616
 40
0.4615384615384616
 40
0.5384615384615384
 40
0.5384615384615384
 40
0.5384615384615384
 40
0.5384615384615384
 40
0.6153846153846154
 40
0.6153846153846154
 40
0.6153846153846154
 40
0.6153846153846154
 40
0.6923076923076923
 40
0.6923076923076923
 40
0.6923076923076923
 40
0.6923076923076923
 40
0.7692307692307693
 40
0.7692307692307693
 40
0.7692307692307693
 40
0.7692307692307693
 40
0.8461538461538461
 40
0.8461538461538461
 40
0.8461538461538461
 40
0.8461538461538461
 40
1.0
 40
1.0
 40
1.0
 40
1.0
 10
2.6582
 20
-30.7304
 30
0.0
 10
2.6582
 20
-30.7304
 30
0.0
 10
2.6557
 20
-31.1397
 30
0.0
 10
2.6557
 20
-31.1397
 30
0.0
 10
2.6557
 20
-31.1397
 30
0.0
 10
2.6557
 20
-31.1397
 30
0.0
 10
-7.2055
 20
-31.177
 30
0.0
 10
-7.2055
 20
-31.177
 30
0.0
 10
-7.2055
 20
-31.177
 30
0.0
 10
-7.2055
 20
-31.177
 30
0.0
 10
-7.201
 20
-30.7623
 30
0.0
 10
-7.201
 20
-30.7623
 30
0.0
 10
-7.201
 20
-30.7623
 30
0.0
 10
-7.201
 20
-30.7623
 30
0.0
 10
4.3779
 20
-30.7227
 30
0.0
 10
4.3779
 20
-30.7227
 30
0.0
 10
4.3779
 20
-30.7227
 30
0.0
 10
4.3779
 20
-30.7227
 30
0.0
 10
4.8212
 20
-30.6672
 30
0.0
 10
4.8212
 20
-30.6672
 30
0.0
 10
4.8212
 20
-30.6672
 30
0.0
 10
4.8212
 20
-30.6672
 30
0.0
 10
5.126
 20
-30.3062
 30
0.0
 10
5.126
 20
-30.3062
 30
0.0
 10
5.126
 20
-30.3062
 30
0.0
 10
5.126
 20
-30.3062
 30
0.0
 10
5.2924
 20
-29.9452
 30
0.0
 10
5.2924
 20
-29.9452
 30
0.0
 10
5.2924
 20
-29.9452
 30
0.0
 10
5.2924
 20
-29.9452
 30
0.0
 10
5.32
 20
-23.725
 30
0.0
 10
5.32
 20
-23.725
 30
0.0
 10
5.32
 20
-23.725
 30
0.0
 10
5.32
 20
-23.725
 30
0.0
 10
-9.811
 20
-23.6973
 30
0.0
 10
-9.811
 20
-23.6973
 30
0.0
 10
-9.811
 20
-23.6973
 30
0.0
 10
-9.811
 20
-23.6973
 30
0.0
 10
-9.809
 20
-29.871
 30
0.0
 10
-9.809
 20
-29.871
 30
0.0
 10
-9.809
 20
-29.871
 30
0.0
 10
-9.809
 20
-30.3731
 30
0.0
 10
-9.4019
 20
-30.7802
 30
0.0
 10
-8.8998
 20
-30.7802
 30
0.0
 10
-8.8998
 20
-30.7802
 30
0.0
 10
-8.8998
 20
-30.7802
 30
0.0
 10
-4.795
 20
-30.7506
 30
0.0
 10
-4.795
 20
-30.7506
 30
0.0
  0
SPLINE
  5
AC
330
1F
100
AcDbEntity
  8
ROUND
 62
   250
100
AcDbSpline
210
0.0
220
0.0
230
1.0
 70
    27
 71
     3
 72
    12
 73
     8
 74
     0
 42
0.0000000001
 43
0.0000000001
 40
0.0
 40
0.0
 40
0.0
 40
0.0
 40
0.3333333333333333
 40
0.3333333333333333
 40
0.3333333333333333
 40
0.3333333333333333
 40
1.0
 40
1.0
 40
1.0
 40
1.0
 10
-9.5362
 20
-21.8702
 30
0.0
 10
-9.5362
 20
-21.8702
 30
0.0
 10
-9.5362
 20
-22.9613
 30
0.0
 10
-9.5362
 20
-22.9613
 30
0.0
 10
-9.5362
 20
-22.9613
 30
0.0
 10
-9.5362
 20
-22.9613
 30
0.0
 10
-9.5362
 20
-21.8702
 30
0.0
 10
-9.5362
 20
-21.8702
 30
0.0
  0
SPLINE
  5
AD
330
1F
100
AcDbEntity
  8
ROUND
 62
   250
100
AcDbSpline
210
0.0
220
0.0
230
1.0
 70
    27
 71
     3
 72
    12
 73
     8
 74
     0
 42
0.0000000001
 43
0.0000000001
 40
0.0
 40
0.0
 40
0.0
 40
0.0
 40
0.3333333333333333
 40
0.3333333333333333
 40
0.3333333333333333
 40
0.3333333333333333
 40
1.0
 40
1.0
 40
1.0
 40
1.0
 10
5.0107
 20
-21.8702
 30
0.0
 10
5.0107
 20
-21.8702
 30
0.0
 10
5.0107
 20
-22.9613
 30
0.0
 10
5.0107
 20
-22.9613
 30
0.0
 10
5.0107
 20
-22.9613
 30
0.0
 10
5.0107
 20
-22.9613
 30
0.0
 10
5.0107
 20
-21.8702
 30
0.0
 10
5.0107
 20
-21.8702
 30
0.0
  0
SPLINE
  5
AE
330
1F
100
AcDbEntity
  8
ROUND
 62
   250
100
AcDbSpline
210
0.0
220
0.0
230
1.0
 70
     8
 71
     3
 72
    40
 73
    36
 74
     0
 42
0.0000000001
 43
0.0000000001
 40
0.0
 40
0.0
 40
0.0
 40
0.0
 40
0.1
 40
0.1
 40
0.1
 40
0.1
 40
0.2
 40
0.2
 40
0.2
 40
0.2
 40
0.3
 40
0.3
 40
0.3
 40
0.3
 40
0.4
 40
0.4
 40
0.4
 40
0.4
 40
0.5
 40
0.5
 40
0.5
 40
0.5
 40
0.6
 40
0.6
 40
0.6
 40
0.6
 40
0.7
 40
0.7
 40
0.7
 40
0.7
 40
0.8
 40
0.8
 40
0.8
 40
0.8
 40
1.0
 40
1.0
 40
1.0
 40
1.0
 10
-9.6709
 20
-16.5324
 30
0.0
 10
-9.6709
 20
-16.5324
 30
0.0
 10
-9.6726
 20
-17.0333
 30
0.0
 10
-9.6726
 20
-17.0333
 30
0.0
 10
-9.6726
 20
-17.0333
 30
0.0
 10
-9.6726
 20
-17.0333
 30
0.0
 10
-9.4893
 20
-17.0333
 30
0.0
 10
-9.4893
 20
-17.0333
 30
0.0
 10
-9.4893
 20
-17.0333
 30
0.0
 10
-9.4893
 20
-17.0333
 30
0.0
 10
-8.5804
 20
-17.0333
 30
0.0
 10
-8.5804
 20
-17.0333
 30
0.0
 10
-8.5804
 20
-17.0333
 30
0.0
 10
-8.5804
 20
-17.0333
 30
0.0
 10
-4.0599
 20
-17.0333
 30
0.0
 10
-4.0599
 20
-17.0333
 30
0.0
 10
-4.0599
 20
-17.0333
 30
0.0
 10
-4.0599
 20
-17.0333
 30
0.0
 10
-2.3562
 20
-17.0333
 30
0.0
 10
-2.3562
 20
-17.0333
 30
0.0
 10
-2.3562
 20
-17.0333
 30
0.0
 10
-2.3562
 20
-17.0333
 30
0.0
 10
4.0549
 20
-17.0333
 30
0.0
 10
4.0549
 20
-17.0333
 30
0.0
 10
4.0549
 20
-17.0333
 30
0.0
 10
4.0549
 20
-17.0333
 30
0.0
 10
4.9638
 20
-17.0333
 30
0.0
 10
4.9638
 20
-17.0333
 30
0.0
 10
4.9638
 20
-17.0333
 30
0.0
 10
4.9638
 20
-17.0333
 30
0.0
 10
5.1471
 20
-17.0333
 30
0.0
 10
5.1471
 20
-17.0333
 30
0.0
 10
5.1471
 20
-17.0333
 30
0.0
 10
5.1471
 20
-17.0333
 30
0.0
 10
5.1435
 20
-16.4719
 30
0.0
 10
5.1435
 20
-16.4719
 30
0.0
  0
SPLINE
  5
AF
330
1F
100
AcDbEntity
  8
ROUND
 62
   250
100
AcDbSpline
210
0.0
220
0.0
230
1.0
 70
    11
 71
     3
 72
   116
 73
   112
 74
     0
 42
0.0000000001
 43
0.0000000001
 40
0.0
 40
0.0
 40
0.0
 40
0.0
 40
0.0344827586206897
 40
0.0344827586206897
 40
0.0344827586206897
 40
0.0344827586206897
 40
0.0689655172413793
 40
0.0689655172413793
 40
0.0689655172413793
 40
0.0689655172413793
 40
0.103448275862069
 40
0.103448275862069
 40
0.103448275862069
 40
0.103448275862069
 40
0.1379310344827586
 40
0.1379310344827586
 40
0.1379310344827586
 40
0.1379310344827586
 40
0.1724137931034483
 40
0.1724137931034483
 40
0.1724137931034483
 40
0.1724137931034483
 40
0.2068965517241379
 40
0.2068965517241379
 40
0.2068965517241379
 40
0.2068965517241379
 40
0.2413793103448276
 40
0.2413793103448276
 40
0.2413793103448276
 40
0.2413793103448276
 40
0.2758620689655172
 40
0.2758620689655172
 40
0.2758620689655172
 40
0.2758620689655172
 40
0.3103448275862069
 40
0.3103448275862069
 40
0.3103448275862069
 40
0.3103448275862069
 40
0.3448275862068966
 40
0.3448275862068966
 40
0.3448275862068966
 40
0.3448275862068966
 40
0.3793103448275862
 40
0.3793103448275862
 40
0.3793103448275862
 40
0.3793103448275862
 40
0.4137931034482759
 40
0.4137931034482759
 40
0.4137931034482759
 40
0.4137931034482759
 40
0.4482758620689655
 40
0.4482758620689655
 40
0.4482758620689655
 40
0.4482758620689655
 40
0.4827586206896552
 40
0.4827586206896552
 40
0.4827586206896552
 40
0.4827586206896552
 40
0.5172413793103449
 40
0.5172413793103449
 40
0.5172413793103449
 40
0.5172413793103449
 40
0.5517241379310345
 40
0.5517241379310345
 40
0.5517241379310345
 40
0.5517241379310345
 40
0.5862068965517241
 40
0.5862068965517241
 40
0.5862068965517241
 40
0.5862068965517241
 40
0.6206896551724138
 40
0.6206896551724138
 40
0.6206896551724138
 40
0.6206896551724138
 40
0.6551724137931034
 40
0.6551724137931034
 40
0.6551724137931034
 40
0.6551724137931034
 40
0.6896551724137931
 40
0.6896551724137931
 40
0.6896551724137931
 40
0.6896551724137931
 40
0.7241379310344828
 40
0.7241379310344828
 40
0.7241379310344828
 40
0.7241379310344828
 40
0.7586206896551724
 40
0.7586206896551724
 40
0.7586206896551724
 40
0.7586206896551724
 40
0.7931034482758621
 40
0.7931034482758621
 40
0.7931034482758621
 40
0.7931034482758621
 40
0.8275862068965517
 40
0.8275862068965517
 40
0.8275862068965517
 40
0.8275862068965517
 40
0.8620689655172413
 40
0.8620689655172413
 40
0.8620689655172413
 40
0.8620689655172413
 40
0.896551724137931
 40
0.896551724137931
 40
0.896551724137931
 40
0.896551724137931
 40
0.9310344827586207
 40
0.9310344827586207
 40
0.9310344827586207
 40
0.9310344827586207
 40
1.0
 40
1.0
 40
1.0
 40
1.0
 10
3.2721
 20
-20.5985
 30
0.0
 10
3.2721
 20
-20.5985
 30
0.0
 10
3.372
 20
-21.0348
 30
0.0
 10
3.372
 20
-21.0348
 30
0.0
 10
3.372
 20
-21.0348
 30
0.0
 10
3.372
 20
-21.0348
 30
0.0
 10
4.0549
 20
-21.0348
 30
0.0
 10
4.0549
 20
-21.0348
 30
0.0
 10
4.0549
 20
-21.0348
 30
0.0
 10
4.0549
 20
-21.0348
 30
0.0
 10
4.0549
 20
-17.0333
 30
0.0
 10
4.0549
 20
-17.0333
 30
0.0
 10
4.0549
 20
-17.0333
 30
0.0
 10
4.0549
 20
-17.0333
 30
0.0
 10
4.0549
 20
-21.0348
 30
0.0
 10
4.0549
 20
-21.0348
 30
0.0
 10
4.0549
 20
-21.0348
 30
0.0
 10
4.0549
 20
-21.0348
 30
0.0
 10
4.9638
 20
-21.0348
 30
0.0
 10
4.9638
 20
-21.0348
 30
0.0
 10
4.9638
 20
-21.0348
 30
0.0
 10
4.9638
 20
-21.0348
 30
0.0
 10
4.9638
 20
-17.0333
 30
0.0
 10
4.9638
 20
-17.0333
 30
0.0
 10
4.9638
 20
-17.0333
 30
0.0
 10
4.9638
 20
-17.0333
 30
0.0
 10
4.9638
 20
-21.0348
 30
0.0
 10
4.9638
 20
-21.0348
 30
0.0
 10
4.9638
 20
-21.0348
 30
0.0
 10
4.9638
 20
-21.0348
 30
0.0
 10
5.1732
 20
-21.0348
 30
0.0
 10
5.1732
 20
-21.0348
 30
0.0
 10
5.1732
 20
-21.0348
 30
0.0
 10
5.1732
 20
-21.0348
 30
0.0
 10
5.1732
 20
-21.8564
 30
0.0
 10
5.1732
 20
-21.8564
 30
0.0
 10
5.1732
 20
-21.8564
 30
0.0
 10
5.1732
 20
-21.8564
 30
0.0
 10
-9.6903
 20
-21.8564
 30
0.0
 10
-9.6903
 20
-21.8564
 30
0.0
 10
-9.6903
 20
-21.8564
 30
0.0
 10
-9.6903
 20
-21.8564
 30
0.0
 10
-9.6903
 20
-21.0348
 30
0.0
 10
-9.6903
 20
-21.0348
 30
0.0
 10
-9.6903
 20
-21.0348
 30
0.0
 10
-9.6903
 20
-21.0348
 30
0.0
 10
-9.4893
 20
-21.0348
 30
0.0
 10
-9.4893
 20
-21.0348
 30
0.0
 10
-9.4893
 20
-21.0348
 30
0.0
 10
-9.4893
 20
-21.0348
 30
0.0
 10
-9.4893
 20
-17.0333
 30
0.0
 10
-9.4893
 20
-17.0333
 30
0.0
 10
-9.4893
 20
-17.0333
 30
0.0
 10
-9.4893
 20
-17.0333
 30
0.0
 10
-9.4893
 20
-21.0348
 30
0.0
 10
-9.4893
 20
-21.0348
 30
0.0
 10
-9.4893
 20
-21.0348
 30
0.0
 10
-9.4893
 20
-21.0348
 30
0.0
 10
-8.5804
 20
-21.0348
 30
0.0
 10
-8.5804
 20
-21.0348
 30
0.0
 10
-8.5804
 20
-21.0348
 30
0.0
 10
-8.5804
 20
-21.0348
 30
0.0
 10
-8.5804
 20
-17.0333
 30
0.0
 10
-8.5804
 20
-17.0333
 30
0.0
 10
-8.5804
 20
-17.0333
 30
0.0
 10
-8.5804
 20
-17.0333
 30
0.0
 10
-8.5804
 20
-21.0348
 30
0.0
 10
-8.5804
 20
-21.0348
 30
0.0
 10
-8.5804
 20
-21.0348
 30
0.0
 10
-8.5804
 20
-21.0348
 30
0.0
 10
-7.8973
 20
-21.0348
 30
0.0
 10
-7.8973
 20
-21.0348
 30
0.0
 10
-7.8973
 20
-21.0348
 30
0.0
 10
-7.8973
 20
-21.0348
 30
0.0
 10
-7.811
 20
-20.6584
 30
0.0
 10
-7.811
 20
-20.6584
 30
0.0
 10
-7.811
 20
-20.6584
 30
0.0
 10
-7.811
 20
-20.6584
 30
0.0
 10
-7.8973
 20
-21.0348
 30
0.0
 10
-7.8973
 20
-21.0348
 30
0.0
 10
-7.8973
 20
-21.0348
 30
0.0
 10
-7.8973
 20
-21.0348
 30
0.0
 10
-4.0599
 20
-21.0348
 30
0.0
 10
-4.0599
 20
-21.0348
 30
0.0
 10
-4.0599
 20
-21.0348
 30
0.0
 10
-4.0599
 20
-21.0348
 30
0.0
 10
-4.0599
 20
-17.0333
 30
0.0
 10
-4.0599
 20
-17.0333
 30
0.0
 10
-4.0599
 20
-17.0333
 30
0.0
 10
-4.0599
 20
-17.0333
 30
0.0
 10
-4.0599
 20
-21.0348
 30
0.0
 10
-4.0599
 20
-21.0348
 30
0.0
 10
-4.0599
 20
-21.0348
 30
0.0
 10
-4.0599
 20
-21.0348
 30
0.0
 10
-2.3562
 20
-21.0348
 30
0.0
 10
-2.3562
 20
-21.0348
 30
0.0
 10
-2.3562
 20
-21.0348
 30
0.0
 10
-2.3562
 20
-21.0348
 30
0.0
 10
-2.3562
 20
-17.0333
 30
0.0
 10
-2.3562
 20
-17.0333
 30
0.0
 10
-2.3562
 20
-17.0333
 30
0.0
 10
-2.3562
 20
-17.0333
 30
0.0
 10
-2.3562
 20
-21.0348
 30
0.0
 10
-2.3562
 20
-21.0348
 30
0.0
 10
-2.3562
 20
-21.0348
 30
0.0
 10
-2.3562
 20
-21.0348
 30
0.0
 10
3.372
 20
-21.0348
 30
0.0
 10
3.372
 20
-21.0348
 30
0.0
 10
3.372
 20
-21.0348
 30
0.0
 10
3.372
 20
-21.0348
 30
0.0
 10
3.2721
 20
-20.5985
 30
0.0
 10
3.2721
 20
-20.5985
 30
0.0
  0
SPLINE
  5
B0
330
1F
100
AcDbEntity
  8
ROUND
 62
   250
100
AcDbSpline
210
0.0
220
0.0
230
1.0
 70
     8
 71
     3
 72
    20
 73
    16
 74
     0
 42
0.0000000001
 43
0.0000000001
 40
0.0
 40
0.0
 40
0.0
 40
0.0
 40
0.2
 40
0.2
 40
0.2
 40
0.2
 40
0.4
 40
0.4
 40
0.4
 40
0.4
 40
0.6
 40
0.6
 40
0.6
 40
0.6
 40
1.0
 40
1.0
 40
1.0
 40
1.0
 10
0.6394
 20
-17.0438
 30
0.0
 10
0.6394
 20
-17.0438
 30
0.0
 10
0.6467
 20
-18.5495
 30
0.0
 10
0.6467
 20
-18.5495
 30
0.0
 10
0.6467
 20
-18.5495
 30
0.0
 10
0.6467
 20
-18.9956
 30
0.0
 10
0.9183
 20
-19.3968
 30
0.0
 10
1.3325
 20
-19.5624
 30
0.0
 10
1.3325
 20
-19.5624
 30
0.0
 10
1.3325
 20
-19.5624
 30
0.0
 10
2.4935
 20
-20.0215
 30
0.0
 10
2.4935
 20
-20.0215
 30
0.0
 10
2.4935
 20
-20.0215
 30
0.0
 10
2.4935
 20
-20.0215
 30
0.0
 10
2.4935
 20
-20.2463
 30
0.0
 10
2.4935
 20
-20.2463
 30
0.0
  0
SPLINE
  5
B1
330
1F
100
AcDbEntity
  8
ROUND
 62
   250
100
AcDbSpline
210
0.0
220
0.0
230
1.0
 70
     8
 71
     3
 72
    16
 73
    12
 74
     0
 42
0.0000000001
 43
0.0000000001
 40
0.0
 40
0.0
 40
0.0
 40
0.0
 40
0.25
 40
0.25
 40
0.25
 40
0.25
 40
0.5
 40
0.5
 40
0.5
 40
0.5
 40
1.0
 40
1.0
 40
1.0
 40
1.0
 10
-2.3463
 20
-20.2902
 30
0.0
 10
-2.3463
 20
-20.2902
 30
0.0
 10
3.647
 20
-20.2883
 30
0.0
 10
3.647
 20
-20.2883
 30
0.0
 10
3.647
 20
-20.2883
 30
0.0
 10
3.647
 20
-20.2883
 30
0.0
 10
3.647
 20
-20.6519
 30
0.0
 10
3.647
 20
-20.6519
 30
0.0
 10
3.647
 20
-20.6519
 30
0.0
 10
3.647
 20
-20.6519
 30
0.0
 10
-2.385
 20
-20.6393
 30
0.0
 10
-2.385
 20
-20.6393
 30
0.0
  0
SPLINE
  5
B2
330
1F
100
AcDbEntity
  8
ROUND
 62
   250
100
AcDbSpline
210
0.0
220
0.0
230
1.0
 70
     8
 71
     3
 72
    20
 73
    16
 74
     0
 42
0.0000000001
 43
0.0000000001
 40
0.0
 40
0.0
 40
0.0
 40
0.0
 40
0.2
 40
0.2
 40
0.2
 40
0.2
 40
0.4
 40
0.4
 40
0.4
 40
0.4
 40
0.6
 40
0.6
 40
0.6
 40
0.6
 40
1.0
 40
1.0
 40
1.0
 40
1.0
 10
-5.1697
 20
-17.0432
 30
0.0
 10
-5.1697
 20
-17.0432
 30
0.0
 10
-5.1722
 20
-18.5495
 30
0.0
 10
-5.1722
 20
-18.5495
 30
0.0
 10
-5.1722
 20
-18.5495
 30
0.0
 10
-5.1722
 20
-18.9956
 30
0.0
 10
-5.4437
 20
-19.3968
 30
0.0
 10
-5.858
 20
-19.5624
 30
0.0
 10
-5.858
 20
-19.5624
 30
0.0
 10
-5.858
 20
-19.5624
 30
0.0
 10
-6.9877
 20
-20.0201
 30
0.0
 10
-6.9877
 20
-20.0201
 30
0.0
 10
-6.9877
 20
-20.0201
 30
0.0
 10
-6.9877
 20
-20.0201
 30
0.0
 10
-6.9877
 20
-20.2867
 30
0.0
 10
-6.9877
 20
-20.2867
 30
0.0
  0
SPLINE
  5
B3
330
1F
100
AcDbEntity
  8
ROUND
 62
   250
100
AcDbSpline
210
0.0
220
0.0
230
1.0
 70
     8
 71
     3
 72
    16
 73
    12
 74
     0
 42
0.0000000001
 43
0.0000000001
 40
0.0
 40
0.0
 40
0.0
 40
0.0
 40
0.25
 40
0.25
 40
0.25
 40
0.25
 40
0.5
 40
0.5
 40
0.5
 40
0.5
 40
1.0
 40
1.0
 40
1.0
 40
1.0
 10
-4.0599
 20
-20.6519
 30
0.0
 10
-4.0599
 20
-20.6519
 30
0.0
 10
-8.1724
 20
-20.6519
 30
0.0
 10
-8.1724
 20
-20.6519
 30
0.0
 10
-8.1724
 20
-20.6519
 30
0.0
 10
-8.1724
 20
-20.6519
 30
0.0
 10
-8.1773
 20
-20.2861
 30
0.0
 10
-8.1773
 20
-20.2861
 30
0.0
 10
-8.1773
 20
-20.2861
 30
0.0
 10
-8.1773
 20
-20.2861
 30
0.0
 10
-4.082
 20
-20.2727
 30
0.0
 10
-4.082
 20
-20.2727
 30
0.0
  0
SPLINE
  5
B4
330
1F
100
AcDbEntity
  8
ROUND
 62
   250
100
AcDbSpline
210
0.0
220
0.0
230
1.0
 70
    24
 71
     3
 72
     8
 73
     4
 74
     0
 42
0.0000000001
 43
0.0000000001
 40
0.0
 40
0.0
 40
0.0
 40
0.0
 40
1.0
 40
1.0
 40
1.0
 40
1.0
 10
13.8371
 20
-13.5988
 30
0.0
 10
13.8371
 20
-13.5988
 30
0.0
 10
-13.9695
 20
-13.5988
 30
0.0
 10
-13.9695
 20
-13.5988
 30
0.0
  0
SPLINE
  5
B5
330
1F
100
AcDbEntity
  8
ROUND
 62
   250
100
AcDbSpline
210
0.0
220
0.0
230
1.0
 70
    11
 71
     3
 72
    20
 73
    16
 74
     0
 42
0.0000000001
 43
0.0000000001
 40
0.0
 40
0.0
 40
0.0
 40
0.0
 40
0.2
 40
0.2
 40
0.2
 40
0.2
 40
0.4
 40
0.4
 40
0.4
 40
0.4
 40
0.6
 40
0.6
 40
0.6
 40
0.6
 40
1.0
 40
1.0
 40
1.0
 40
1.0
 10
-13.2387
 20
-13.1111
 30
0.0
 10
-13.2387
 20
-13.1111
 30
0.0
 10
-10.2387
 20
-13.5345
 30
0.0
 10
-10.2387
 20
-13.5345
 30
0.0
 10
-10.2387
 20
-13.5345
 30
0.0
 10
-10.2387
 20
-13.5345
 30
0.0
 10
-10.2387
 20
-13.6285
 30
0.0
 10
-10.2387
 20
-13.6285
 30
0.0
 10
-10.2387
 20
-13.6285
 30
0.0
 10
-10.2387
 20
-13.6285
 30
0.0
 10
-13.2387
 20
-14.08
 30
0.0
 10
-13.2387
 20
-14.08
 30
0.0
 10
-13.2387
 20
-14.08
 30
0.0
 10
-13.2387
 20
-14.08
 30
0.0
 10
-13.2387
 20
-13.1111
 30
0.0
 10
-13.2387
 20
-13.1111
 30
0.0
  0
SPLINE
  5
B6
330
1F
100
AcDbEntity
  8
ROUND
 62
   250
100
AcDbSpline
210
0.0
220
0.0
230
1.0
 70
    11
 71
     3
 72
    20
 73
    16
 74
     0
 42
0.0000000001
 43
0.0000000001
 40
0.0
 40
0.0
 40
0.0
 40
0.0
 40
0.2
 40
0.2
 40
0.2
 40
0.2
 40
0.4
 40
0.4
 40
0.4
 40
0.4
 40
0.6
 40
0.6
 40
0.6
 40
0.6
 40
1.0
 40
1.0
 40
1.0
 40
1.0
 10
8.7656
 20
-14.0388
 30
0.0
 10
8.7656
 20
-14.0388
 30
0.0
 10
5.7655
 20
-13.6154
 30
0.0
 10
5.7655
 20
-13.6154
 30
0.0
 10
5.7655
 20
-13.6154
 30
0.0
 10
5.7655
 20
-13.6154
 30
0.0
 10
5.7655
 20
-13.5213
 30
0.0
 10
5.7655
 20
-13.5213
 30
0.0
 10
5.7655
 20
-13.5213
 30
0.0
 10
5.7655
 20
-13.5213
 30
0.0
 10
8.7656
 20
-13.0698
 30
0.0
 10
8.7656
 20
-13.0698
 30
0.0
 10
8.7656
 20
-13.0698
 30
0.0
 10
8.7656
 20
-13.0698
 30
0.0
 10
8.7656
 20
-14.0388
 30
0.0
 10
8.7656
 20
-14.0388
 30
0.0
  0
SPLINE
  5
B7
330
1F
100
AcDbEntity
  8
ROUND
 62
   250
100
AcDbSpline
210
0.0
220
0.0
230
1.0
 70
    11
 71
     3
 72
    84
 73
    80
 74
     0
 42
0.0000000001
 43
0.0000000001
 40
0.0
 40
0.0
 40
0.0
 40
0.0
 40
0.0476190476190476
 40
0.0476190476190476
 40
0.0476190476190476
 40
0.0476190476190476
 40
0.0952380952380952
 40
0.0952380952380952
 40
0.0952380952380952
 40
0.0952380952380952
 40
0.1428571428571428
 40
0.1428571428571428
 40
0.1428571428571428
 40
0.1428571428571428
 40
0.1904761904761905
 40
0.1904761904761905
 40
0.1904761904761905
 40
0.1904761904761905
 40
0.2380952380952381
 40
0.2380952380952381
 40
0.2380952380952381
 40
0.2380952380952381
 40
0.2857142857142857
 40
0.2857142857142857
 40
0.2857142857142857
 40
0.2857142857142857
 40
0.3333333333333333
 40
0.3333333333333333
 40
0.3333333333333333
 40
0.3333333333333333
 40
0.3809523809523809
 40
0.3809523809523809
 40
0.3809523809523809
 40
0.3809523809523809
 40
0.4285714285714285
 40
0.4285714285714285
 40
0.4285714285714285
 40
0.4285714285714285
 40
0.4761904761904762
 40
0.4761904761904762
 40
0.4761904761904762
 40
0.4761904761904762
 40
0.5238095238095238
 40
0.5238095238095238
 40
0.5238095238095238
 40
0.5238095238095238
 40
0.5714285714285714
 40
0.5714285714285714
 40
0.5714285714285714
 40
0.5714285714285714
 40
0.6190476190476191
 40
0.6190476190476191
 40
0.6190476190476191
 40
0.6190476190476191
 40
0.6666666666666666
 40
0.6666666666666666
 40
0.6666666666666666
 40
0.6666666666666666
 40
0.7142857142857143
 40
0.7142857142857143
 40
0.7142857142857143
 40
0.7142857142857143
 40
0.7619047619047619
 40
0.7619047619047619
 40
0.7619047619047619
 40
0.7619047619047619
 40
0.8095238095238095
 40
0.8095238095238095
 40
0.8095238095238095
 40
0.8095238095238095
 40
0.8571428571428571
 40
0.8571428571428571
 40
0.8571428571428571
 40
0.8571428571428571
 40
0.9047619047619048
 40
0.9047619047619048
 40
0.9047619047619048
 40
0.9047619047619048
 40
1.0
 40
1.0
 40
1.0
 40
1.0
 10
9.7774
 20
-10.9089
 30
0.0
 10
9.7774
 20
-10.9089
 30
0.0
 10
10.0088
 20
-10.6498
 30
0.0
 10
10.0088
 20
-10.6498
 30
0.0
 10
10.0088
 20
-10.6498
 30
0.0
 10
10.0088
 20
-10.6498
 30
0.0
 10
10.1452
 20
-10.7655
 30
0.0
 10
10.1452
 20
-10.7655
 30
0.0
 10
10.1452
 20
-10.7655
 30
0.0
 10
10.1452
 20
-10.7655
 30
0.0
 10
9.903
 20
-11.0383
 30
0.0
 10
9.903
 20
-11.0383
 30
0.0
 10
9.903
 20
-11.0383
 30
0.0
 10
9.982
 20
-11.1559
 30
0.0
 10
10.0351
 20
-11.2589
 30
0.0
 10
10.0629
 20
-11.3468
 30
0.0
 10
10.0629
 20
-11.3468
 30
0.0
 10
10.0996
 20
-11.4626
 30
0.0
 10
10.1179
 20
-11.5924
 30
0.0
 10
10.1179
 20
-11.7354
 30
0.0
 10
10.1179
 20
-11.7354
 30
0.0
 10
10.1179
 20
-11.9423
 30
0.0
 10
10.0761
 20
-12.1267
 30
0.0
 10
9.9923
 20
-12.288
 30
0.0
 10
9.9923
 20
-12.288
 30
0.0
 10
9.9086
 20
-12.4499
 30
0.0
 10
9.7915
 20
-12.5721
 30
0.0
 10
9.6405
 20
-12.6549
 30
0.0
 10
9.6405
 20
-12.6549
 30
0.0
 10
9.489
 20
-12.7372
 30
0.0
 10
9.3287
 20
-12.7786
 30
0.0
 10
9.1589
 20
-12.7786
 30
0.0
 10
9.1589
 20
-12.7786
 30
0.0
 10
9.0319
 20
-12.7786
 30
0.0
 10
8.9171
 20
-12.7608
 30
0.0
 10
8.8141
 20
-12.725
 30
0.0
 10
8.8141
 20
-12.725
 30
0.0
 10
8.7351
 20
-12.6973
 30
0.0
 10
8.6429
 20
-12.6446
 30
0.0
 10
8.537
 20
-12.5665
 30
0.0
 10
8.537
 20
-12.5665
 30
0.0
 10
8.537
 20
-12.5665
 30
0.0
 10
8.3056
 20
-12.8257
 30
0.0
 10
8.3056
 20
-12.8257
 30
0.0
 10
8.3056
 20
-12.8257
 30
0.0
 10
8.3056
 20
-12.8257
 30
0.0
 10
8.1692
 20
-12.71
 30
0.0
 10
8.1692
 20
-12.71
 30
0.0
 10
8.1692
 20
-12.71
 30
0.0
 10
8.1692
 20
-12.71
 30
0.0
 10
8.4119
 20
-12.4386
 30
0.0
 10
8.4119
 20
-12.4386
 30
0.0
 10
8.4119
 20
-12.4386
 30
0.0
 10
8.3216
 20
-12.3017
 30
0.0
 10
8.2614
 20
-12.1846
 30
0.0
 10
8.2313
 20
-12.0877
 30
0.0
 10
8.2313
 20
-12.0877
 30
0.0
 10
8.2012
 20
-11.9908
 30
0.0
 10
8.1857
 20
-11.8741
 30
0.0
 10
8.1857
 20
-11.7382
 30
0.0
 10
8.1857
 20
-11.7382
 30
0.0
 10
8.1857
 20
-11.5308
 30
0.0
 10
8.2271
 20
-11.3459
 30
0.0
 10
8.3098
 20
-11.1836
 30
0.0
 10
8.3098
 20
-11.1836
 30
0.0
 10
8.3926
 20
-11.0213
 30
0.0
 10
8.5083
 20
-10.8986
 30
0.0
 10
8.6579
 20
-10.8149
 30
0.0
 10
8.6579
 20
-10.8149
 30
0.0
 10
8.807
 20
-10.7316
 30
0.0
 10
8.9731
 20
-10.6897
 30
0.0
 10
9.156
 20
-10.6897
 30
0.0
 10
9.156
 20
-10.6897
 30
0.0
 10
9.2793
 20
-10.6897
 30
0.0
 10
9.387
 20
-10.7057
 30
0.0
 10
9.4792
 20
-10.7387
 30
0.0
 10
9.4792
 20
-10.7387
 30
0.0
 10
9.5714
 20
-10.7711
 30
0.0
 10
9.6711
 20
-10.828
 30
0.0
 10
9.7774
 20
-10.9089
 30
0.0
  0
SPLINE
  5
B8
330
1F
100
AcDbEntity
  8
ROUND
 62
   250
100
AcDbSpline
210
0.0
220
0.0
230
1.0
 70
    11
 71
     3
 72
    32
 73
    28
 74
     0
 42
0.0000000001
 43
0.0000000001
 40
0.0
 40
0.0
 40
0.0
 40
0.0
 40
0.125
 40
0.125
 40
0.125
 40
0.125
 40
0.25
 40
0.25
 40
0.25
 40
0.25
 40
0.375
 40
0.375
 40
0.375
 40
0.375
 40
0.5
 40
0.5
 40
0.5
 40
0.5
 40
0.625
 40
0.625
 40
0.625
 40
0.625
 40
0.75
 40
0.75
 40
0.75
 40
0.75
 40
1.0
 40
1.0
 40
1.0
 40
1.0
 10
9.6123
 20
-11.0947
 30
0.0
 10
9.5257
 20
-11.027
 30
0.0
 10
9.45
 20
-10.9804
 30
0.0
 10
9.3856
 20
-10.9555
 30
0.0
 10
9.3856
 20
-10.9555
 30
0.0
 10
9.3207
 20
-10.931
 30
0.0
 10
9.2445
 20
-10.9183
 30
0.0
 10
9.1574
 20
-10.9183
 30
0.0
 10
9.1574
 20
-10.9183
 30
0.0
 10
8.9561
 20
-10.9183
 30
0.0
 10
8.7901
 20
-10.9865
 30
0.0
 10
8.6584
 20
-11.1229
 30
0.0
 10
8.6584
 20
-11.1229
 30
0.0
 10
8.5271
 20
-11.2594
 30
0.0
 10
8.4613
 20
-11.463
 30
0.0
 10
8.4613
 20
-11.7344
 30
0.0
 10
8.4613
 20
-11.7344
 30
0.0
 10
8.4613
 20
-11.8407
 30
0.0
 10
8.4716
 20
-11.9353
 30
0.0
 10
8.4919
 20
-12.0181
 30
0.0
 10
8.4919
 20
-12.0181
 30
0.0
 10
8.5065
 20
-12.0797
 30
0.0
 10
8.537
 20
-12.1554
 30
0.0
 10
8.5841
 20
-12.2452
 30
0.0
 10
8.5841
 20
-12.2452
 30
0.0
 10
8.5841
 20
-12.2452
 30
0.0
 10
9.6123
 20
-11.0947
 30
0.0
 10
9.6123
 20
-11.0947
 30
0.0
  0
SPLINE
  5
B9
330
1F
100
AcDbEntity
  8
ROUND
 62
   250
100
AcDbSpline
210
0.0
220
0.0
230
1.0
 70
    11
 71
     3
 72
    28
 73
    24
 74
     0
 42
0.0000000001
 43
0.0000000001
 40
0.0
 40
0.0
 40
0.0
 40
0.0
 40
0.1428571428571428
 40
0.1428571428571428
 40
0.1428571428571428
 40
0.1428571428571428
 40
0.2857142857142857
 40
0.2857142857142857
 40
0.2857142857142857
 40
0.2857142857142857
 40
0.4285714285714285
 40
0.4285714285714285
 40
0.4285714285714285
 40
0.4285714285714285
 40
0.5714285714285714
 40
0.5714285714285714
 40
0.5714285714285714
 40
0.5714285714285714
 40
0.7142857142857143
 40
0.7142857142857143
 40
0.7142857142857143
 40
0.7142857142857143
 40
1.0
 40
1.0
 40
1.0
 40
1.0
 10
9.7252
 20
-11.2368
 30
0.0
 10
9.7252
 20
-11.2368
 30
0.0
 10
8.7012
 20
-12.3831
 30
0.0
 10
8.7012
 20
-12.3831
 30
0.0
 10
8.7012
 20
-12.3831
 30
0.0
 10
8.7717
 20
-12.4409
 30
0.0
 10
8.8371
 20
-12.4814
 30
0.0
 10
8.8969
 20
-12.5044
 30
0.0
 10
8.8969
 20
-12.5044
 30
0.0
 10
8.9749
 20
-12.535
 30
0.0
 10
9.0596
 20
-12.55
 30
0.0
 10
9.1504
 20
-12.55
 30
0.0
 10
9.1504
 20
-12.55
 30
0.0
 10
9.3508
 20
-12.55
 30
0.0
 10
9.5159
 20
-12.4795
 30
0.0
 10
9.6466
 20
-12.3379
 30
0.0
 10
9.6466
 20
-12.3379
 30
0.0
 10
9.7769
 20
-12.1963
 30
0.0
 10
9.8423
 20
-11.9978
 30
0.0
 10
9.8423
 20
-11.7424
 30
0.0
 10
9.8423
 20
-11.7424
 30
0.0
 10
9.8423
 20
-11.5515
 30
0.0
 10
9.8033
 20
-11.3826
 30
0.0
 10
9.7252
 20
-11.2368
 30
0.0
  0
SPLINE
  5
BA
330
1F
100
AcDbEntity
  8
ROUND
 62
   250
100
AcDbSpline
210
0.0
220
0.0
230
1.0
 70
    11
 71
     3
 72
    68
 73
    64
 74
     0
 42
0.0000000001
 43
0.0000000001
 40
0.0
 40
0.0
 40
0.0
 40
0.0
 40
0.0588235294117647
 40
0.0588235294117647
 40
0.0588235294117647
 40
0.0588235294117647
 40
0.1176470588235294
 40
0.1176470588235294
 40
0.1176470588235294
 40
0.1176470588235294
 40
0.1764705882352941
 40
0.1764705882352941
 40
0.1764705882352941
 40
0.1764705882352941
 40
0.2352941176470588
 40
0.2352941176470588
 40
0.2352941176470588
 40
0.2352941176470588
 40
0.2941176470588235
 40
0.2941176470588235
 40
0.2941176470588235
 40
0.2941176470588235
 40
0.3529411764705883
 40
0.3529411764705883
 40
0.3529411764705883
 40
0.3529411764705883
 40
0.4117647058823529
 40
0.4117647058823529
 40
0.4117647058823529
 40
0.4117647058823529
 40
0.4705882352941176
 40
0.4705882352941176
 40
0.4705882352941176
 40
0.4705882352941176
 40
0.5294117647058824
 40
0.5294117647058824
 40
0.5294117647058824
 40
0.5294117647058824
 40
0.5882352941176471
 40
0.5882352941176471
 40
0.5882352941176471
 40
0.5882352941176471
 40
0.6470588235294118
 40
0.6470588235294118
 40
0.6470588235294118
 40
0.6470588235294118
 40
0.7058823529411765
 40
0.7058823529411765
 40
0.7058823529411765
 40
0.7058823529411765
 40
0.7647058823529411
 40
0.7647058823529411
 40
0.7647058823529411
 40
0.7647058823529411
 40
0.8235294117647058
 40
0.8235294117647058
 40
0.8235294117647058
 40
0.8235294117647058
 40
0.8823529411764706
 40
0.8823529411764706
 40
0.8823529411764706
 40
0.8823529411764706
 40
1.0
 40
1.0
 40
1.0
 40
1.0
 10
10.7492
 20
-11.6488
 30
0.0
 10
10.6461
 20
-11.6112
 30
0.0
 10
10.5699
 20
-11.5576
 30
0.0
 10
10.5201
 20
-11.4875
 30
0.0
 10
10.5201
 20
-11.4875
 30
0.0
 10
10.4707
 20
-11.4179
 30
0.0
 10
10.4458
 20
-11.3341
 30
0.0
 10
10.4458
 20
-11.2368
 30
0.0
 10
10.4458
 20
-11.2368
 30
0.0
 10
10.4458
 20
-11.0896
 30
0.0
 10
10.4985
 20
-10.9663
 30
0.0
 10
10.6043
 20
-10.8661
 30
0.0
 10
10.6043
 20
-10.8661
 30
0.0
 10
10.7101
 20
-10.7659
 30
0.0
 10
10.8503
 20
-10.7156
 30
0.0
 10
11.0257
 20
-10.7156
 30
0.0
 10
11.0257
 20
-10.7156
 30
0.0
 10
11.2021
 20
-10.7156
 30
0.0
 10
11.3442
 20
-10.7669
 30
0.0
 10
11.4519
 20
-10.8694
 30
0.0
 10
11.4519
 20
-10.8694
 30
0.0
 10
11.5591
 20
-10.972
 30
0.0
 10
11.6128
 20
-11.0966
 30
0.0
 10
11.6128
 20
-11.2438
 30
0.0
 10
11.6128
 20
-11.2438
 30
0.0
 10
11.6128
 20
-11.3374
 30
0.0
 10
11.5883
 20
-11.4188
 30
0.0
 10
11.5394
 20
-11.4884
 30
0.0
 10
11.5394
 20
-11.4884
 30
0.0
 10
11.49
 20
-11.5576
 30
0.0
 10
11.4157
 20
-11.6112
 30
0.0
 10
11.3155
 20
-11.6488
 30
0.0
 10
11.3155
 20
-11.6488
 30
0.0
 10
11.4392
 20
-11.6893
 30
0.0
 10
11.5337
 20
-11.7542
 30
0.0
 10
11.5986
 20
-11.8445
 30
0.0
 10
11.5986
 20
-11.8445
 30
0.0
 10
11.6631
 20
-11.9343
 30
0.0
 10
11.6955
 20
-12.042
 30
0.0
 10
11.6955
 20
-12.1667
 30
0.0
 10
11.6955
 20
-12.1667
 30
0.0
 10
11.6955
 20
-12.3398
 30
0.0
 10
11.6344
 20
-12.4847
 30
0.0
 10
11.5126
 20
-12.6022
 30
0.0
 10
11.5126
 20
-12.6022
 30
0.0
 10
11.3903
 20
-12.7198
 30
0.0
 10
11.2294
 20
-12.7786
 30
0.0
 10
11.03
 20
-12.7786
 30
0.0
 10
11.03
 20
-12.7786
 30
0.0
 10
10.8305
 20
-12.7786
 30
0.0
 10
10.6701
 20
-12.7198
 30
0.0
 10
10.5478
 20
-12.6018
 30
0.0
 10
10.5478
 20
-12.6018
 30
0.0
 10
10.4255
 20
-12.4837
 30
0.0
 10
10.3644
 20
-12.3365
 30
0.0
 10
10.3644
 20
-12.1601
 30
0.0
 10
10.3644
 20
-12.1601
 30
0.0
 10
10.3644
 20
-12.0289
 30
0.0
 10
10.3978
 20
-11.9188
 30
0.0
 10
10.4646
 20
-11.8299
 30
0.0
 10
10.4646
 20
-11.8299
 30
0.0
 10
10.5309
 20
-11.7415
 30
0.0
 10
10.6259
 20
-11.6808
 30
0.0
 10
10.7492
 20
-11.6488
 30
0.0
  0
SPLINE
  5
BB
330
1F
100
AcDbEntity
  8
ROUND
 62
   250
100
AcDbSpline
210
0.0
220
0.0
230
1.0
 70
    11
 71
     3
 72
    36
 73
    32
 74
     0
 42
0.0000000001
 43
0.0000000001
 40
0.0
 40
0.0
 40
0.0
 40
0.0
 40
0.1111111111111111
 40
0.1111111111111111
 40
0.1111111111111111
 40
0.1111111111111111
 40
0.2222222222222222
 40
0.2222222222222222
 40
0.2222222222222222
 40
0.2222222222222222
 40
0.3333333333333333
 40
0.3333333333333333
 40
0.3333333333333333
 40
0.3333333333333333
 40
0.4444444444444444
 40
0.4444444444444444
 40
0.4444444444444444
 40
0.4444444444444444
 40
0.5555555555555556
 40
0.5555555555555556
 40
0.5555555555555556
 40
0.5555555555555556
 40
0.6666666666666666
 40
0.6666666666666666
 40
0.6666666666666666
 40
0.6666666666666666
 40
0.7777777777777778
 40
0.7777777777777778
 40
0.7777777777777778
 40
0.7777777777777778
 40
1.0
 40
1.0
 40
1.0
 40
1.0
 10
10.6993
 20
-11.2283
 30
0.0
 10
10.6993
 20
-11.3238
 30
0.0
 10
10.7303
 20
-11.4019
 30
0.0
 10
10.7915
 20
-11.4626
 30
0.0
 10
10.7915
 20
-11.4626
 30
0.0
 10
10.8531
 20
-11.5232
 30
0.0
 10
10.9331
 20
-11.5538
 30
0.0
 10
11.0314
 20
-11.5538
 30
0.0
 10
11.0314
 20
-11.5538
 30
0.0
 10
11.1269
 20
-11.5538
 30
0.0
 10
11.2054
 20
-11.5237
 30
0.0
 10
11.2666
 20
-11.4635
 30
0.0
 10
11.2666
 20
-11.4635
 30
0.0
 10
11.3277
 20
-11.4033
 30
0.0
 10
11.3578
 20
-11.3294
 30
0.0
 10
11.3578
 20
-11.2424
 30
0.0
 10
11.3578
 20
-11.2424
 30
0.0
 10
11.3578
 20
-11.1512
 30
0.0
 10
11.3268
 20
-11.075
 30
0.0
 10
11.2637
 20
-11.0129
 30
0.0
 10
11.2637
 20
-11.0129
 30
0.0
 10
11.2007
 20
-10.9508
 30
0.0
 10
11.1226
 20
-10.9197
 30
0.0
 10
11.0286
 20
-10.9197
 30
0.0
 10
11.0286
 20
-10.9197
 30
0.0
 10
10.934
 20
-10.9197
 30
0.0
 10
10.8555
 20
-10.9503
 30
0.0
 10
10.7929
 20
-11.0105
 30
0.0
 10
10.7929
 20
-11.0105
 30
0.0
 10
10.7303
 20
-11.0712
 30
0.0
 10
10.6993
 20
-11.1441
 30
0.0
 10
10.6993
 20
-11.2283
 30
0.0
  0
SPLINE
  5
BC
330
1F
100
AcDbEntity
  8
ROUND
 62
   250
100
AcDbSpline
210
0.0
220
0.0
230
1.0
 70
    11
 71
     3
 72
    40
 73
    36
 74
     0
 42
0.0000000001
 43
0.0000000001
 40
0.0
 40
0.0
 40
0.0
 40
0.0
 40
0.1
 40
0.1
 40
0.1
 40
0.1
 40
0.2
 40
0.2
 40
0.2
 40
0.2
 40
0.3
 40
0.3
 40
0.3
 40
0.3
 40
0.4
 40
0.4
 40
0.4
 40
0.4
 40
0.5
 40
0.5
 40
0.5
 40
0.5
 40
0.6
 40
0.6
 40
0.6
 40
0.6
 40
0.7
 40
0.7
 40
0.7
 40
0.7
 40
0.8
 40
0.8
 40
0.8
 40
0.8
 40
1.0
 40
1.0
 40
1.0
 40
1.0
 10
10.6193
 20
-12.1615
 30
0.0
 10
10.6193
 20
-12.2321
 30
0.0
 10
10.6363
 20
-12.3007
 30
0.0
 10
10.6697
 20
-12.3666
 30
0.0
 10
10.6697
 20
-12.3666
 30
0.0
 10
10.7031
 20
-12.4329
 30
0.0
 10
10.7529
 20
-12.4842
 30
0.0
 10
10.8192
 20
-12.5204
 30
0.0
 10
10.8192
 20
-12.5204
 30
0.0
 10
10.8856
 20
-12.5566
 30
0.0
 10
10.9566
 20
-12.575
 30
0.0
 10
11.0328
 20
-12.575
 30
0.0
 10
11.0328
 20
-12.575
 30
0.0
 10
11.1513
 20
-12.575
 30
0.0
 10
11.2492
 20
-12.5369
 30
0.0
 10
11.3263
 20
-12.4602
 30
0.0
 10
11.3263
 20
-12.4602
 30
0.0
 10
11.4034
 20
-12.384
 30
0.0
 10
11.442
 20
-12.2871
 30
0.0
 10
11.442
 20
-12.1695
 30
0.0
 10
11.442
 20
-12.1695
 30
0.0
 10
11.442
 20
-12.05
 30
0.0
 10
11.4025
 20
-11.9513
 30
0.0
 10
11.323
 20
-11.8732
 30
0.0
 10
11.323
 20
-11.8732
 30
0.0
 10
11.2435
 20
-11.7951
 30
0.0
 10
11.1438
 20
-11.7561
 30
0.0
 10
11.0243
 20
-11.7561
 30
0.0
 10
11.0243
 20
-11.7561
 30
0.0
 10
10.9077
 20
-11.7561
 30
0.0
 10
10.8112
 20
-11.7946
 30
0.0
 10
10.7346
 20
-11.8718
 30
0.0
 10
10.7346
 20
-11.8718
 30
0.0
 10
10.6579
 20
-11.9494
 30
0.0
 10
10.6193
 20
-12.0458
 30
0.0
 10
10.6193
 20
-12.1615
 30
0.0
  0
SPLINE
  5
BD
330
1F
100
AcDbEntity
  8
ROUND
 62
   250
100
AcDbSpline
210
0.0
220
0.0
230
1.0
 70
    11
 71
     3
 72
    92
 73
    88
 74
     0
 42
0.0000000001
 43
0.0000000001
 40
0.0
 40
0.0
 40
0.0
 40
0.0
 40
0.0434782608695652
 40
0.0434782608695652
 40
0.0434782608695652
 40
0.0434782608695652
 40
0.0869565217391304
 40
0.0869565217391304
 40
0.0869565217391304
 40
0.0869565217391304
 40
0.1304347826086956
 40
0.1304347826086956
 40
0.1304347826086956
 40
0.1304347826086956
 40
0.1739130434782609
 40
0.1739130434782609
 40
0.1739130434782609
 40
0.1739130434782609
 40
0.2173913043478261
 40
0.2173913043478261
 40
0.2173913043478261
 40
0.2173913043478261
 40
0.2608695652173913
 40
0.2608695652173913
 40
0.2608695652173913
 40
0.2608695652173913
 40
0.3043478260869565
 40
0.3043478260869565
 40
0.3043478260869565
 40
0.3043478260869565
 40
0.3478260869565217
 40
0.3478260869565217
 40
0.3478260869565217
 40
0.3478260869565217
 40
0.391304347826087
 40
0.391304347826087
 40
0.391304347826087
 40
0.391304347826087
 40
0.4347826086956522
 40
0.4347826086956522
 40
0.4347826086956522
 40
0.4347826086956522
 40
0.4782608695652174
 40
0.4782608695652174
 40
0.4782608695652174
 40
0.4782608695652174
 40
0.5217391304347826
 40
0.5217391304347826
 40
0.5217391304347826
 40
0.5217391304347826
 40
0.5652173913043478
 40
0.5652173913043478
 40
0.5652173913043478
 40
0.5652173913043478
 40
0.6086956521739131
 40
0.6086956521739131
 40
0.6086956521739131
 40
0.6086956521739131
 40
0.6521739130434783
 40
0.6521739130434783
 40
0.6521739130434783
 40
0.6521739130434783
 40
0.6956521739130435
 40
0.6956521739130435
 40
0.6956521739130435
 40
0.6956521739130435
 40
0.7391304347826086
 40
0.7391304347826086
 40
0.7391304347826086
 40
0.7391304347826086
 40
0.782608695652174
 40
0.782608695652174
 40
0.782608695652174
 40
0.782608695652174
 40
0.8260869565217391
 40
0.8260869565217391
 40
0.8260869565217391
 40
0.8260869565217391
 40
0.8695652173913043
 40
0.8695652173913043
 40
0.8695652173913043
 40
0.8695652173913043
 40
0.9130434782608695
 40
0.9130434782608695
 40
0.9130434782608695
 40
0.9130434782608695
 40
1.0
 40
1.0
 40
1.0
 40
1.0
 10
11.9368
 20
-12.2151
 30
0.0
 10
11.9368
 20
-12.2151
 30
0.0
 10
12.1974
 20
-12.193
 30
0.0
 10
12.1974
 20
-12.193
 30
0.0
 10
12.1974
 20
-12.193
 30
0.0
 10
12.2167
 20
-12.32
 30
0.0
 10
12.2614
 20
-12.415
 30
0.0
 10
12.3315
 20
-12.479
 30
0.0
 10
12.3315
 20
-12.479
 30
0.0
 10
12.402
 20
-12.543
 30
0.0
 10
12.4867
 20
-12.575
 30
0.0
 10
12.5859
 20
-12.575
 30
0.0
 10
12.5859
 20
-12.575
 30
0.0
 10
12.7054
 20
-12.575
 30
0.0
 10
12.8065
 20
-12.5298
 30
0.0
 10
12.8888
 20
-12.44
 30
0.0
 10
12.8888
 20
-12.44
 30
0.0
 10
12.9716
 20
-12.3497
 30
0.0
 10
13.013
 20
-12.2302
 30
0.0
 10
13.013
 20
-12.0816
 30
0.0
 10
13.013
 20
-12.0816
 30
0.0
 10
13.013
 20
-11.94
 30
0.0
 10
12.9735
 20
-11.8285
 30
0.0
 10
12.894
 20
-11.7467
 30
0.0
 10
12.894
 20
-11.7467
 30
0.0
 10
12.8145
 20
-11.6648
 30
0.0
 10
12.7106
 20
-11.6239
 30
0.0
 10
12.5817
 20
-11.6239
 30
0.0
 10
12.5817
 20
-11.6239
 30
0.0
 10
12.5017
 20
-11.6239
 30
0.0
 10
12.4298
 20
-11.6422
 30
0.0
 10
12.3653
 20
-11.6784
 30
0.0
 10
12.3653
 20
-11.6784
 30
0.0
 10
12.3009
 20
-11.7147
 30
0.0
 10
12.2506
 20
-11.7617
 30
0.0
 10
12.2139
 20
-11.8196
 30
0.0
 10
12.2139
 20
-11.8196
 30
0.0
 10
12.2139
 20
-11.8196
 30
0.0
 10
11.981
 20
-11.7895
 30
0.0
 10
11.981
 20
-11.7895
 30
0.0
 10
11.981
 20
-11.7895
 30
0.0
 10
11.981
 20
-11.7895
 30
0.0
 10
12.1767
 20
-10.7518
 30
0.0
 10
12.1767
 20
-10.7518
 30
0.0
 10
12.1767
 20
-10.7518
 30
0.0
 10
12.1767
 20
-10.7518
 30
0.0
 10
13.1814
 20
-10.7518
 30
0.0
 10
13.1814
 20
-10.7518
 30
0.0
 10
13.1814
 20
-10.7518
 30
0.0
 10
13.1814
 20
-10.7518
 30
0.0
 10
13.1814
 20
-10.9889
 30
0.0
 10
13.1814
 20
-10.9889
 30
0.0
 10
13.1814
 20
-10.9889
 30
0.0
 10
13.1814
 20
-10.9889
 30
0.0
 10
12.3752
 20
-10.9889
 30
0.0
 10
12.3752
 20
-10.9889
 30
0.0
 10
12.3752
 20
-10.9889
 30
0.0
 10
12.3752
 20
-10.9889
 30
0.0
 10
12.2661
 20
-11.5317
 30
0.0
 10
12.2661
 20
-11.5317
 30
0.0
 10
12.2661
 20
-11.5317
 30
0.0
 10
12.3874
 20
-11.447
 30
0.0
 10
12.5149
 20
-11.4047
 30
0.0
 10
12.648
 20
-11.4047
 30
0.0
 10
12.648
 20
-11.4047
 30
0.0
 10
12.8244
 20
-11.4047
 30
0.0
 10
12.973
 20
-11.4658
 30
0.0
 10
13.0944
 20
-11.5881
 30
0.0
 10
13.0944
 20
-11.5881
 30
0.0
 10
13.2157
 20
-11.7104
 30
0.0
 10
13.2764
 20
-11.8675
 30
0.0
 10
13.2764
 20
-12.0594
 30
0.0
 10
13.2764
 20
-12.0594
 30
0.0
 10
13.2764
 20
-12.2424
 30
0.0
 10
13.2228
 20
-12.4005
 30
0.0
 10
13.1165
 20
-12.5336
 30
0.0
 10
13.1165
 20
-12.5336
 30
0.0
 10
12.9867
 20
-12.6968
 30
0.0
 10
12.8098
 20
-12.7786
 30
0.0
 10
12.5859
 20
-12.7786
 30
0.0
 10
12.5859
 20
-12.7786
 30
0.0
 10
12.402
 20
-12.7786
 30
0.0
 10
12.252
 20
-12.7274
 30
0.0
 10
12.1358
 20
-12.6244
 30
0.0
 10
12.1358
 20
-12.6244
 30
0.0
 10
12.0196
 20
-12.5213
 30
0.0
 10
11.9533
 20
-12.3849
 30
0.0
 10
11.9368
 20
-12.2151
 30
0.0
  0
SPLINE
  5
BE
330
1F
100
AcDbEntity
  8
ROUND
 62
   250
100
AcDbSpline
210
0.0
220
0.0
230
1.0
 70
    11
 71
     3
 72
    20
 73
    16
 74
     0
 42
0.0000000001
 43
0.0000000001
 40
0.0
 40
0.0
 40
0.0
 40
0.0
 40
0.2
 40
0.2
 40
0.2
 40
0.2
 40
0.4
 40
0.4
 40
0.4
 40
0.4
 40
0.6
 40
0.6
 40
0.6
 40
0.6
 40
1.0
 40
1.0
 40
1.0
 40
1.0
 10
-4.7974
 20
-11.7202
 30
0.0
 10
-4.7974
 20
-11.7202
 30
0.0
 10
2.0547
 20
-11.7202
 30
0.0
 10
2.0547
 20
-11.7202
 30
0.0
 10
2.0547
 20
-11.7202
 30
0.0
 10
2.0547
 20
-11.7202
 30
0.0
 10
2.0547
 20
-12.1471
 30
0.0
 10
2.0547
 20
-12.1471
 30
0.0
 10
2.0547
 20
-12.1471
 30
0.0
 10
2.0547
 20
-12.1471
 30
0.0
 10
-4.7974
 20
-12.1471
 30
0.0
 10
-4.7974
 20
-12.1471
 30
0.0
 10
-4.7974
 20
-12.1471
 30
0.0
 10
-4.7974
 20
-12.1471
 30
0.0
 10
-4.7974
 20
-11.7202
 30
0.0
 10
-4.7974
 20
-11.7202
 30
0.0
  0
SPLINE
  5
BF
330
1F
100
AcDbEntity
  8
ROUND
 62
   250
100
AcDbSpline
210
0.0
220
0.0
230
1.0
 70
     8
 71
     3
 72
    28
 73
    24
 74
     0
 42
0.0000000001
 43
0.0000000001
 40
0.0
 40
0.0
 40
0.0
 40
0.0
 40
0.1428571428571428
 40
0.1428571428571428
 40
0.1428571428571428
 40
0.1428571428571428
 40
0.2857142857142857
 40
0.2857142857142857
 40
0.2857142857142857
 40
0.2857142857142857
 40
0.4285714285714285
 40
0.4285714285714285
 40
0.4285714285714285
 40
0.4285714285714285
 40
0.5714285714285714
 40
0.5714285714285714
 40
0.5714285714285714
 40
0.5714285714285714
 40
0.7142857142857143
 40
0.7142857142857143
 40
0.7142857142857143
 40
0.7142857142857143
 40
1.0
 40
1.0
 40
1.0
 40
1.0
 10
0.6295
 20
-1.58
 30
0.0
 10
0.6295
 20
-1.58
 30
0.0
 10
0.6295
 20
-0.8769
 30
0.0
 10
0.6295
 20
-0.8769
 30
0.0
 10
0.6295
 20
-0.8769
 30
0.0
 10
0.5805
 20
-0.8578
 30
0.0
 10
0.4033
 20
-0.7273
 30
0.0
 10
0.4033
 20
-0.7273
 30
0.0
 10
0.4033
 20
-0.7273
 30
0.0
 10
0.4033
 20
-0.7273
 30
0.0
 10
0.4033
 20
-0.2504
 30
0.0
 10
0.4033
 20
-0.2504
 30
0.0
 10
0.4033
 20
-0.2504
 30
0.0
 10
0.4033
 20
-0.2504
 30
0.0
 10
0.6514
 20
-0.1596
 30
0.0
 10
0.6514
 20
-0.1596
 30
0.0
 10
0.6514
 20
-0.1596
 30
0.0
 10
0.6514
 20
-0.1596
 30
0.0
 10
0.6514
 20
0.1527
 30
0.0
 10
0.6514
 20
0.1527
 30
0.0
 10
0.6514
 20
0.1527
 30
0.0
 10
0.6514
 20
0.1527
 30
0.0
 10
0.427
 20
0.1836
 30
0.0
 10
0.427
 20
0.1836
 30
0.0
  0
SPLINE
  5
C0
330
1F
100
AcDbEntity
  8
ROUND
 62
   250
100
AcDbSpline
210
0.0
220
0.0
230
1.0
 70
    11
 71
     3
 72
    36
 73
    32
 74
     0
 42
0.0000000001
 43
0.0000000001
 40
0.0
 40
0.0
 40
0.0
 40
0.0
 40
0.1111111111111111
 40
0.1111111111111111
 40
0.1111111111111111
 40
0.1111111111111111
 40
0.2222222222222222
 40
0.2222222222222222
 40
0.2222222222222222
 40
0.2222222222222222
 40
0.3333333333333333
 40
0.3333333333333333
 40
0.3333333333333333
 40
0.3333333333333333
 40
0.4444444444444444
 40
0.4444444444444444
 40
0.4444444444444444
 40
0.4444444444444444
 40
0.5555555555555556
 40
0.5555555555555556
 40
0.5555555555555556
 40
0.5555555555555556
 40
0.6666666666666666
 40
0.6666666666666666
 40
0.6666666666666666
 40
0.6666666666666666
 40
0.7777777777777778
 40
0.7777777777777778
 40
0.7777777777777778
 40
0.7777777777777778
 40
1.0
 40
1.0
 40
1.0
 40
1.0
 10
-3.3947
 20
7.1266
 30
0.0
 10
-3.3947
 20
7.1266
 30
0.0
 10
-1.18
 20
7.0843
 30
0.0
 10
-1.18
 20
7.0843
 30
0.0
 10
-1.18
 20
7.0843
 30
0.0
 10
-1.18
 20
7.0843
 30
0.0
 10
-1.1969
 20
6.6438
 30
0.0
 10
-1.1944
 20
6.6307
 30
0.0
 10
-1.1944
 20
6.6307
 30
0.0
 10
-1.1944
 20
6.6307
 30
0.0
 10
-1.6309
 20
6.5497
 30
0.0
 10
-1.6309
 20
6.5497
 30
0.0
 10
-1.6309
 20
6.5497
 30
0.0
 10
-1.6309
 20
6.5497
 30
0.0
 10
-2.0777
 20
6.5095
 30
0.0
 10
-2.0777
 20
6.5095
 30
0.0
 10
-2.0777
 20
6.5095
 30
0.0
 10
-2.0777
 20
6.5095
 30
0.0
 10
-2.5278
 20
6.5095
 30
0.0
 10
-2.5278
 20
6.5095
 30
0.0
 10
-2.5278
 20
6.5095
 30
0.0
 10
-2.5278
 20
6.5095
 30
0.0
 10
-2.9745
 20
6.5497
 30
0.0
 10
-2.9745
 20
6.5497
 30
0.0
 10
-2.9745
 20
6.5497
 30
0.0
 10
-2.9745
 20
6.5497
 30
0.0
 10
-3.4109
 20
6.6307
 30
0.0
 10
-3.4109
 20
6.6307
 30
0.0
 10
-3.4109
 20
6.6307
 30
0.0
 10
-3.4109
 20
6.6307
 30
0.0
 10
-3.3947
 20
7.1266
 30
0.0
 10
-3.3947
 20
7.1266
 30
0.0
  0
SPLINE
  5
C1
330
1F
100
AcDbEntity
  8
ROUND
 62
   250
100
AcDbSpline
210
0.0
220
0.0
230
1.0
 70
    11
 71
     3
 72
    36
 73
    32
 74
     0
 42
0.0000000001
 43
0.0000000001
 40
0.0
 40
0.0
 40
0.0
 40
0.0
 40
0.1111111111111111
 40
0.1111111111111111
 40
0.1111111111111111
 40
0.1111111111111111
 40
0.2222222222222222
 40
0.2222222222222222
 40
0.2222222222222222
 40
0.2222222222222222
 40
0.3333333333333333
 40
0.3333333333333333
 40
0.3333333333333333
 40
0.3333333333333333
 40
0.4444444444444444
 40
0.4444444444444444
 40
0.4444444444444444
 40
0.4444444444444444
 40
0.5555555555555556
 40
0.5555555555555556
 40
0.5555555555555556
 40
0.5555555555555556
 40
0.6666666666666666
 40
0.6666666666666666
 40
0.6666666666666666
 40
0.6666666666666666
 40
0.7777777777777778
 40
0.7777777777777778
 40
0.7777777777777778
 40
0.7777777777777778
 40
1.0
 40
1.0
 40
1.0
 40
1.0
 10
-3.4261
 20
6.2163
 30
0.0
 10
-3.4261
 20
6.2163
 30
0.0
 10
-1.2114
 20
6.174
 30
0.0
 10
-1.2114
 20
6.174
 30
0.0
 10
-1.2114
 20
6.174
 30
0.0
 10
-1.2114
 20
6.174
 30
0.0
 10
-1.2283
 20
5.7335
 30
0.0
 10
-1.2258
 20
5.7204
 30
0.0
 10
-1.2258
 20
5.7204
 30
0.0
 10
-1.2258
 20
5.7204
 30
0.0
 10
-1.6623
 20
5.721
 30
0.0
 10
-1.6623
 20
5.721
 30
0.0
 10
-1.6623
 20
5.721
 30
0.0
 10
-1.6623
 20
5.721
 30
0.0
 10
-2.1279
 20
5.6996
 30
0.0
 10
-2.1279
 20
5.6996
 30
0.0
 10
-2.1279
 20
5.6996
 30
0.0
 10
-2.1279
 20
5.6996
 30
0.0
 10
-2.5592
 20
5.7059
 30
0.0
 10
-2.5592
 20
5.7059
 30
0.0
 10
-2.5592
 20
5.7059
 30
0.0
 10
-2.5592
 20
5.7059
 30
0.0
 10
-2.9997
 20
5.7147
 30
0.0
 10
-2.9997
 20
5.7147
 30
0.0
 10
-2.9997
 20
5.7147
 30
0.0
 10
-2.9997
 20
5.7147
 30
0.0
 10
-3.4423
 20
5.7204
 30
0.0
 10
-3.4423
 20
5.7204
 30
0.0
 10
-3.4423
 20
5.7204
 30
0.0
 10
-3.4423
 20
5.7204
 30
0.0
 10
-3.4261
 20
6.2163
 30
0.0
 10
-3.4261
 20
6.2163
 30
0.0
  0
SPLINE
  5
C2
330
1F
100
AcDbEntity
  8
ROUND
 62
   250
100
AcDbSpline
210
0.0
220
0.0
230
1.0
 70
    11
 71
     3
 72
    20
 73
    16
 74
     0
 42
0.0000000001
 43
0.0000000001
 40
0.0
 40
0.0
 40
0.0
 40
0.0
 40
0.2
 40
0.2
 40
0.2
 40
0.2
 40
0.4
 40
0.4
 40
0.4
 40
0.4
 40
0.6
 40
0.6
 40
0.6
 40
0.6
 40
1.0
 40
1.0
 40
1.0
 40
1.0
 10
15.8124
 20
26.8974
 30
0.0
 10
15.8124
 20
26.8974
 30
0.0
 10
16.2358
 20
29.8975
 30
0.0
 10
16.2358
 20
29.8975
 30
0.0
 10
16.2358
 20
29.8975
 30
0.0
 10
16.2358
 20
29.8975
 30
0.0
 10
16.3298
 20
29.8975
 30
0.0
 10
16.3298
 20
29.8975
 30
0.0
 10
16.3298
 20
29.8975
 30
0.0
 10
16.3298
 20
29.8975
 30
0.0
 10
16.7813
 20
26.8974
 30
0.0
 10
16.7813
 20
26.8974
 30
0.0
 10
16.7813
 20
26.8974
 30
0.0
 10
16.7813
 20
26.8974
 30
0.0
 10
15.8124
 20
26.8974
 30
0.0
 10
15.8124
 20
26.8974
 30
0.0
  0
SPLINE
  5
C3
330
1F
100
AcDbEntity
  8
ROUND
 62
   250
100
AcDbSpline
210
0.0
220
0.0
230
1.0
 70
    11
 71
     3
 72
    20
 73
    16
 74
     0
 42
0.0000000001
 43
0.0000000001
 40
0.0
 40
0.0
 40
0.0
 40
0.0
 40
0.2
 40
0.2
 40
0.2
 40
0.2
 40
0.4
 40
0.4
 40
0.4
 40
0.4
 40
0.6
 40
0.6
 40
0.6
 40
0.6
 40
1.0
 40
1.0
 40
1.0
 40
1.0
 10
16.7112
 20
-18.4879
 30
0.0
 10
16.7112
 20
-18.4879
 30
0.0
 10
16.2878
 20
-21.4879
 30
0.0
 10
16.2878
 20
-21.4879
 30
0.0
 10
16.2878
 20
-21.4879
 30
0.0
 10
16.2878
 20
-21.4879
 30
0.0
 10
16.1937
 20
-21.4879
 30
0.0
 10
16.1937
 20
-21.4879
 30
0.0
 10
16.1937
 20
-21.4879
 30
0.0
 10
16.1937
 20
-21.4879
 30
0.0
 10
15.7422
 20
-18.4879
 30
0.0
 10
15.7422
 20
-18.4879
 30
0.0
 10
15.7422
 20
-18.4879
 30
0.0
 10
15.7422
 20
-18.4879
 30
0.0
 10
16.7112
 20
-18.4879
 30
0.0
 10
16.7112
 20
-18.4879
 30
0.0
  0
SPLINE
  5
C4
330
1F
100
AcDbEntity
  8
ROUND
 62
   250
100
AcDbSpline
210
0.0
220
0.0
230
1.0
 70
    11
 71
     3
 72
    20
 73
    16
 74
     0
 42
0.0000000001
 43
0.0000000001
 40
0.0
 40
0.0
 40
0.0
 40
0.0
 40
0.2
 40
0.2
 40
0.2
 40
0.2
 40
0.4
 40
0.4
 40
0.4
 40
0.4
 40
0.6
 40
0.6
 40
0.6
 40
0.6
 40
1.0
 40
1.0
 40
1.0
 40
1.0
 10
16.7349
 20
36.5573
 30
0.0
 10
16.7349
 20
36.5573
 30
0.0
 10
16.3116
 20
33.5573
 30
0.0
 10
16.3116
 20
33.5573
 30
0.0
 10
16.3116
 20
33.5573
 30
0.0
 10
16.3116
 20
33.5573
 30
0.0
 10
16.2175
 20
33.5573
 30
0.0
 10
16.2175
 20
33.5573
 30
0.0
 10
16.2175
 20
33.5573
 30
0.0
 10
16.2175
 20
33.5573
 30
0.0
 10
15.766
 20
36.5573
 30
0.0
 10
15.766
 20
36.5573
 30
0.0
 10
15.766
 20
36.5573
 30
0.0
 10
15.766
 20
36.5573
 30
0.0
 10
16.7349
 20
36.5573
 30
0.0
 10
16.7349
 20
36.5573
 30
0.0
  0
SPLINE
  5
C5
330
1F
100
AcDbEntity
  8
ROUND
 62
   250
100
AcDbSpline
210
0.0
220
0.0
230
1.0
 70
    11
 71
     3
 72
    92
 73
    88
 74
     0
 42
0.0000000001
 43
0.0000000001
 40
0.0
 40
0.0
 40
0.0
 40
0.0
 40
0.0434782608695652
 40
0.0434782608695652
 40
0.0434782608695652
 40
0.0434782608695652
 40
0.0869565217391304
 40
0.0869565217391304
 40
0.0869565217391304
 40
0.0869565217391304
 40
0.1304347826086956
 40
0.1304347826086956
 40
0.1304347826086956
 40
0.1304347826086956
 40
0.1739130434782609
 40
0.1739130434782609
 40
0.1739130434782609
 40
0.1739130434782609
 40
0.2173913043478261
 40
0.2173913043478261
 40
0.2173913043478261
 40
0.2173913043478261
 40
0.2608695652173913
 40
0.2608695652173913
 40
0.2608695652173913
 40
0.2608695652173913
 40
0.3043478260869565
 40
0.3043478260869565
 40
0.3043478260869565
 40
0.3043478260869565
 40
0.3478260869565217
 40
0.3478260869565217
 40
0.3478260869565217
 40
0.3478260869565217
 40
0.391304347826087
 40
0.391304347826087
 40
0.391304347826087
 40
0.391304347826087
 40
0.4347826086956522
 40
0.4347826086956522
 40
0.4347826086956522
 40
0.4347826086956522
 40
0.4782608695652174
 40
0.4782608695652174
 40
0.4782608695652174
 40
0.4782608695652174
 40
0.5217391304347826
 40
0.5217391304347826
 40
0.5217391304347826
 40
0.5217391304347826
 40
0.5652173913043478
 40
0.5652173913043478
 40
0.5652173913043478
 40
0.5652173913043478
 40
0.6086956521739131
 40
0.6086956521739131
 40
0.6086956521739131
 40
0.6086956521739131
 40
0.6521739130434783
 40
0.6521739130434783
 40
0.6521739130434783
 40
0.6521739130434783
 40
0.6956521739130435
 40
0.6956521739130435
 40
0.6956521739130435
 40
0.6956521739130435
 40
0.7391304347826086
 40
0.7391304347826086
 40
0.7391304347826086
 40
0.7391304347826086
 40
0.782608695652174
 40
0.782608695652174
 40
0.782608695652174
 40
0.782608695652174
 40
0.8260869565217391
 40
0.8260869565217391
 40
0.8260869565217391
 40
0.8260869565217391
 40
0.8695652173913043
 40
0.8695652173913043
 40
0.8695652173913043
 40
0.8695652173913043
 40
0.9130434782608695
 40
0.9130434782608695
 40
0.9130434782608695
 40
0.9130434782608695
 40
1.0
 40
1.0
 40
1.0
 40
1.0
 10
15.5441
 20
4.3461
 30
0.0
 10
15.5441
 20
4.3461
 30
0.0
 10
15.7826
 20
4.3461
 30
0.0
 10
15.7826
 20
4.3461
 30
0.0
 10
15.7826
 20
4.3461
 30
0.0
 10
15.7826
 20
4.3461
 30
0.0
 10
15.7826
 20
3.0107
 30
0.0
 10
15.7826
 20
3.0107
 30
0.0
 10
15.7826
 20
3.0107
 30
0.0
 10
15.7229
 20
3.0088
 30
0.0
 10
15.6655
 20
3.0182
 30
0.0
 10
15.6104
 20
3.0394
 30
0.0
 10
15.6104
 20
3.0394
 30
0.0
 10
15.5192
 20
3.0733
 30
0.0
 10
15.4298
 20
3.1278
 30
0.0
 10
15.3414
 20
3.2026
 30
0.0
 10
15.3414
 20
3.2026
 30
0.0
 10
15.2534
 20
3.2779
 30
0.0
 10
15.1514
 20
3.3861
 30
0.0
 10
15.0357
 20
3.5272
 30
0.0
 10
15.0357
 20
3.5272
 30
0.0
 10
14.8555
 20
3.7468
 30
0.0
 10
14.713
 20
3.8955
 30
0.0
 10
14.6076
 20
3.9726
 30
0.0
 10
14.6076
 20
3.9726
 30
0.0
 10
14.5027
 20
4.0497
 30
0.0
 10
14.403
 20
4.0883
 30
0.0
 10
14.3094
 20
4.0883
 30
0.0
 10
14.3094
 20
4.0883
 30
0.0
 10
14.2111
 20
4.0883
 30
0.0
 10
14.1283
 20
4.053
 30
0.0
 10
14.0606
 20
3.983
 30
0.0
 10
14.0606
 20
3.983
 30
0.0
 10
13.9933
 20
3.9124
 30
0.0
 10
13.9595
 20
3.8207
 30
0.0
 10
13.9595
 20
3.7078
 30
0.0
 10
13.9595
 20
3.7078
 30
0.0
 10
13.9595
 20
3.5883
 30
0.0
 10
13.9952
 20
3.4928
 30
0.0
 10
14.0672
 20
3.4213
 30
0.0
 10
14.0672
 20
3.4213
 30
0.0
 10
14.1387
 20
3.3494
 30
0.0
 10
14.2379
 20
3.3132
 30
0.0
 10
14.3644
 20
3.3122
 30
0.0
 10
14.3644
 20
3.3122
 30
0.0
 10
14.3644
 20
3.3122
 30
0.0
 10
14.3386
 20
3.0573
 30
0.0
 10
14.3386
 20
3.0573
 30
0.0
 10
14.3386
 20
3.0573
 30
0.0
 10
14.1481
 20
3.0747
 30
0.0
 10
14.0032
 20
3.1405
 30
0.0
 10
13.9035
 20
3.2544
 30
0.0
 10
13.9035
 20
3.2544
 30
0.0
 10
13.8038
 20
3.3682
 30
0.0
 10
13.7539
 20
3.5215
 30
0.0
 10
13.7539
 20
3.7134
 30
0.0
 10
13.7539
 20
3.7134
 30
0.0
 10
13.7539
 20
3.9072
 30
0.0
 10
13.808
 20
4.0606
 30
0.0
 10
13.9152
 20
4.1735
 30
0.0
 10
13.9152
 20
4.1735
 30
0.0
 10
14.023
 20
4.2868
 30
0.0
 10
14.1561
 20
4.3433
 30
0.0
 10
14.3151
 20
4.3433
 30
0.0
 10
14.3151
 20
4.3433
 30
0.0
 10
14.396
 20
4.3433
 30
0.0
 10
14.4755
 20
4.3268
 30
0.0
 10
14.5535
 20
4.2934
 30
0.0
 10
14.5535
 20
4.2934
 30
0.0
 10
14.6316
 20
4.2605
 30
0.0
 10
14.7139
 20
4.2054
 30
0.0
 10
14.8
 20
4.1288
 30
0.0
 10
14.8
 20
4.1288
 30
0.0
 10
14.8866
 20
4.0521
 30
0.0
 10
15.0051
 20
3.9246
 30
0.0
 10
15.1556
 20
3.7464
 30
0.0
 10
15.1556
 20
3.7464
 30
0.0
 10
15.2807
 20
3.5977
 30
0.0
 10
15.3654
 20
3.5022
 30
0.0
 10
15.4101
 20
3.4599
 30
0.0
 10
15.4101
 20
3.4599
 30
0.0
 10
15.4543
 20
3.4176
 30
0.0
 10
15.499
 20
3.3828
 30
0.0
 10
15.5441
 20
3.355
 30
0.0
 10
15.5441
 20
3.355
 30
0.0
 10
15.5441
 20
3.355
 30
0.0
 10
15.5441
 20
4.3461
 30
0.0
 10
15.5441
 20
4.3461
 30
0.0
  0
SPLINE
  5
C6
330
1F
100
AcDbEntity
  8
ROUND
 62
   250
100
AcDbSpline
210
0.0
220
0.0
230
1.0
 70
    11
 71
     3
 72
    68
 73
    64
 74
     0
 42
0.0000000001
 43
0.0000000001
 40
0.0
 40
0.0
 40
0.0
 40
0.0
 40
0.0588235294117647
 40
0.0588235294117647
 40
0.0588235294117647
 40
0.0588235294117647
 40
0.1176470588235294
 40
0.1176470588235294
 40
0.1176470588235294
 40
0.1176470588235294
 40
0.1764705882352941
 40
0.1764705882352941
 40
0.1764705882352941
 40
0.1764705882352941
 40
0.2352941176470588
 40
0.2352941176470588
 40
0.2352941176470588
 40
0.2352941176470588
 40
0.2941176470588235
 40
0.2941176470588235
 40
0.2941176470588235
 40
0.2941176470588235
 40
0.3529411764705883
 40
0.3529411764705883
 40
0.3529411764705883
 40
0.3529411764705883
 40
0.4117647058823529
 40
0.4117647058823529
 40
0.4117647058823529
 40
0.4117647058823529
 40
0.4705882352941176
 40
0.4705882352941176
 40
0.4705882352941176
 40
0.4705882352941176
 40
0.5294117647058824
 40
0.5294117647058824
 40
0.5294117647058824
 40
0.5294117647058824
 40
0.5882352941176471
 40
0.5882352941176471
 40
0.5882352941176471
 40
0.5882352941176471
 40
0.6470588235294118
 40
0.6470588235294118
 40
0.6470588235294118
 40
0.6470588235294118
 40
0.7058823529411765
 40
0.7058823529411765
 40
0.7058823529411765
 40
0.7058823529411765
 40
0.7647058823529411
 40
0.7647058823529411
 40
0.7647058823529411
 40
0.7647058823529411
 40
0.8235294117647058
 40
0.8235294117647058
 40
0.8235294117647058
 40
0.8235294117647058
 40
0.8823529411764706
 40
0.8823529411764706
 40
0.8823529411764706
 40
0.8823529411764706
 40
1.0
 40
1.0
 40
1.0
 40
1.0
 10
14.6871
 20
4.9938
 30
0.0
 10
14.6495
 20
4.8907
 30
0.0
 10
14.5959
 20
4.8145
 30
0.0
 10
14.5258
 20
4.7647
 30
0.0
 10
14.5258
 20
4.7647
 30
0.0
 10
14.4562
 20
4.7153
 30
0.0
 10
14.3724
 20
4.6904
 30
0.0
 10
14.2751
 20
4.6904
 30
0.0
 10
14.2751
 20
4.6904
 30
0.0
 10
14.1279
 20
4.6904
 30
0.0
 10
14.0046
 20
4.7431
 30
0.0
 10
13.9044
 20
4.8489
 30
0.0
 10
13.9044
 20
4.8489
 30
0.0
 10
13.8042
 20
4.9547
 30
0.0
 10
13.7539
 20
5.0949
 30
0.0
 10
13.7539
 20
5.2703
 30
0.0
 10
13.7539
 20
5.2703
 30
0.0
 10
13.7539
 20
5.4467
 30
0.0
 10
13.8052
 20
5.5888
 30
0.0
 10
13.9077
 20
5.6965
 30
0.0
 10
13.9077
 20
5.6965
 30
0.0
 10
14.0103
 20
5.8037
 30
0.0
 10
14.1349
 20
5.8574
 30
0.0
 10
14.2821
 20
5.8574
 30
0.0
 10
14.2821
 20
5.8574
 30
0.0
 10
14.3757
 20
5.8574
 30
0.0
 10
14.4571
 20
5.8329
 30
0.0
 10
14.5267
 20
5.784
 30
0.0
 10
14.5267
 20
5.784
 30
0.0
 10
14.5959
 20
5.7346
 30
0.0
 10
14.6495
 20
5.6603
 30
0.0
 10
14.6871
 20
5.5601
 30
0.0
 10
14.6871
 20
5.5601
 30
0.0
 10
14.7276
 20
5.6838
 30
0.0
 10
14.7925
 20
5.7783
 30
0.0
 10
14.8828
 20
5.8432
 30
0.0
 10
14.8828
 20
5.8432
 30
0.0
 10
14.9726
 20
5.9077
 30
0.0
 10
15.0803
 20
5.9401
 30
0.0
 10
15.205
 20
5.9401
 30
0.0
 10
15.205
 20
5.9401
 30
0.0
 10
15.3781
 20
5.9401
 30
0.0
 10
15.523
 20
5.879
 30
0.0
 10
15.6405
 20
5.7572
 30
0.0
 10
15.6405
 20
5.7572
 30
0.0
 10
15.7581
 20
5.6349
 30
0.0
 10
15.8169
 20
5.474
 30
0.0
 10
15.8169
 20
5.2746
 30
0.0
 10
15.8169
 20
5.2746
 30
0.0
 10
15.8169
 20
5.0751
 30
0.0
 10
15.7581
 20
4.9147
 30
0.0
 10
15.6401
 20
4.7924
 30
0.0
 10
15.6401
 20
4.7924
 30
0.0
 10
15.522
 20
4.6701
 30
0.0
 10
15.3748
 20
4.609
 30
0.0
 10
15.1984
 20
4.609
 30
0.0
 10
15.1984
 20
4.609
 30
0.0
 10
15.0672
 20
4.609
 30
0.0
 10
14.9571
 20
4.6424
 30
0.0
 10
14.8682
 20
4.7092
 30
0.0
 10
14.8682
 20
4.7092
 30
0.0
 10
14.7798
 20
4.7755
 30
0.0
 10
14.7191
 20
4.8705
 30
0.0
 10
14.6871
 20
4.9938
 30
0.0
  0
SPLINE
  5
C7
330
1F
100
AcDbEntity
  8
ROUND
 62
   250
100
AcDbSpline
210
0.0
220
0.0
230
1.0
 70
    11
 71
     3
 72
    36
 73
    32
 74
     0
 42
0.0000000001
 43
0.0000000001
 40
0.0
 40
0.0
 40
0.0
 40
0.0
 40
0.1111111111111111
 40
0.1111111111111111
 40
0.1111111111111111
 40
0.1111111111111111
 40
0.2222222222222222
 40
0.2222222222222222
 40
0.2222222222222222
 40
0.2222222222222222
 40
0.3333333333333333
 40
0.3333333333333333
 40
0.3333333333333333
 40
0.3333333333333333
 40
0.4444444444444444
 40
0.4444444444444444
 40
0.4444444444444444
 40
0.4444444444444444
 40
0.5555555555555556
 40
0.5555555555555556
 40
0.5555555555555556
 40
0.5555555555555556
 40
0.6666666666666666
 40
0.6666666666666666
 40
0.6666666666666666
 40
0.6666666666666666
 40
0.7777777777777778
 40
0.7777777777777778
 40
0.7777777777777778
 40
0.7777777777777778
 40
1.0
 40
1.0
 40
1.0
 40
1.0
 10
14.2666
 20
4.9439
 30
0.0
 10
14.3621
 20
4.9439
 30
0.0
 10
14.4402
 20
4.9749
 30
0.0
 10
14.5009
 20
5.0361
 30
0.0
 10
14.5009
 20
5.0361
 30
0.0
 10
14.5615
 20
5.0977
 30
0.0
 10
14.5921
 20
5.1777
 30
0.0
 10
14.5921
 20
5.276
 30
0.0
 10
14.5921
 20
5.276
 30
0.0
 10
14.5921
 20
5.3715
 30
0.0
 10
14.562
 20
5.45
 30
0.0
 10
14.5018
 20
5.5112
 30
0.0
 10
14.5018
 20
5.5112
 30
0.0
 10
14.4416
 20
5.5723
 30
0.0
 10
14.3677
 20
5.6024
 30
0.0
 10
14.2807
 20
5.6024
 30
0.0
 10
14.2807
 20
5.6024
 30
0.0
 10
14.1895
 20
5.6024
 30
0.0
 10
14.1133
 20
5.5714
 30
0.0
 10
14.0512
 20
5.5083
 30
0.0
 10
14.0512
 20
5.5083
 30
0.0
 10
13.9891
 20
5.4453
 30
0.0
 10
13.958
 20
5.3672
 30
0.0
 10
13.958
 20
5.2732
 30
0.0
 10
13.958
 20
5.2732
 30
0.0
 10
13.958
 20
5.1786
 30
0.0
 10
13.9886
 20
5.1001
 30
0.0
 10
14.0488
 20
5.0375
 30
0.0
 10
14.0488
 20
5.0375
 30
0.0
 10
14.1095
 20
4.9749
 30
0.0
 10
14.1824
 20
4.9439
 30
0.0
 10
14.2666
 20
4.9439
 30
0.0
  0
SPLINE
  5
C8
330
1F
100
AcDbEntity
  8
ROUND
 62
   250
100
AcDbSpline
210
0.0
220
0.0
230
1.0
 70
    11
 71
     3
 72
    40
 73
    36
 74
     0
 42
0.0000000001
 43
0.0000000001
 40
0.0
 40
0.0
 40
0.0
 40
0.0
 40
0.1
 40
0.1
 40
0.1
 40
0.1
 40
0.2
 40
0.2
 40
0.2
 40
0.2
 40
0.3
 40
0.3
 40
0.3
 40
0.3
 40
0.4
 40
0.4
 40
0.4
 40
0.4
 40
0.5
 40
0.5
 40
0.5
 40
0.5
 40
0.6
 40
0.6
 40
0.6
 40
0.6
 40
0.7
 40
0.7
 40
0.7
 40
0.7
 40
0.8
 40
0.8
 40
0.8
 40
0.8
 40
1.0
 40
1.0
 40
1.0
 40
1.0
 10
15.1998
 20
4.8639
 30
0.0
 10
15.2704
 20
4.8639
 30
0.0
 10
15.339
 20
4.8809
 30
0.0
 10
15.4049
 20
4.9143
 30
0.0
 10
15.4049
 20
4.9143
 30
0.0
 10
15.4712
 20
4.9477
 30
0.0
 10
15.5225
 20
4.9975
 30
0.0
 10
15.5587
 20
5.0638
 30
0.0
 10
15.5587
 20
5.0638
 30
0.0
 10
15.5949
 20
5.1302
 30
0.0
 10
15.6133
 20
5.2012
 30
0.0
 10
15.6133
 20
5.2774
 30
0.0
 10
15.6133
 20
5.2774
 30
0.0
 10
15.6133
 20
5.3959
 30
0.0
 10
15.5752
 20
5.4938
 30
0.0
 10
15.4985
 20
5.5709
 30
0.0
 10
15.4985
 20
5.5709
 30
0.0
 10
15.4223
 20
5.648
 30
0.0
 10
15.3254
 20
5.6866
 30
0.0
 10
15.2078
 20
5.6866
 30
0.0
 10
15.2078
 20
5.6866
 30
0.0
 10
15.0883
 20
5.6866
 30
0.0
 10
14.9896
 20
5.6471
 30
0.0
 10
14.9115
 20
5.5676
 30
0.0
 10
14.9115
 20
5.5676
 30
0.0
 10
14.8334
 20
5.4881
 30
0.0
 10
14.7944
 20
5.3884
 30
0.0
 10
14.7944
 20
5.2689
 30
0.0
 10
14.7944
 20
5.2689
 30
0.0
 10
14.7944
 20
5.1523
 30
0.0
 10
14.8329
 20
5.0558
 30
0.0
 10
14.9101
 20
4.9792
 30
0.0
 10
14.9101
 20
4.9792
 30
0.0
 10
14.9877
 20
4.9025
 30
0.0
 10
15.0841
 20
4.8639
 30
0.0
 10
15.1998
 20
4.8639
 30
0.0
  0
SPLINE
  5
C9
330
1F
100
AcDbEntity
  8
ROUND
 62
   250
100
AcDbSpline
210
0.0
220
0.0
230
1.0
 70
    11
 71
     3
 72
    48
 73
    44
 74
     0
 42
0.0000000001
 43
0.0000000001
 40
0.0
 40
0.0
 40
0.0
 40
0.0
 40
0.0833333333333333
 40
0.0833333333333333
 40
0.0833333333333333
 40
0.0833333333333333
 40
0.1666666666666667
 40
0.1666666666666667
 40
0.1666666666666667
 40
0.1666666666666667
 40
0.25
 40
0.25
 40
0.25
 40
0.25
 40
0.3333333333333333
 40
0.3333333333333333
 40
0.3333333333333333
 40
0.3333333333333333
 40
0.4166666666666667
 40
0.4166666666666667
 40
0.4166666666666667
 40
0.4166666666666667
 40
0.5
 40
0.5
 40
0.5
 40
0.5
 40
0.5833333333333334
 40
0.5833333333333334
 40
0.5833333333333334
 40
0.5833333333333334
 40
0.6666666666666666
 40
0.6666666666666666
 40
0.6666666666666666
 40
0.6666666666666666
 40
0.75
 40
0.75
 40
0.75
 40
0.75
 40
0.8333333333333334
 40
0.8333333333333334
 40
0.8333333333333334
 40
0.8333333333333334
 40
1.0
 40
1.0
 40
1.0
 40
1.0
 10
15.7826
 20
6.9763
 30
0.0
 10
15.7826
 20
6.9763
 30
0.0
 10
15.2991
 20
6.9763
 30
0.0
 10
15.2991
 20
6.9763
 30
0.0
 10
15.2991
 20
6.9763
 30
0.0
 10
15.2991
 20
6.9763
 30
0.0
 10
15.2991
 20
6.1
 30
0.0
 10
15.2991
 20
6.1
 30
0.0
 10
15.2991
 20
6.1
 30
0.0
 10
15.2991
 20
6.1
 30
0.0
 10
15.0714
 20
6.1
 30
0.0
 10
15.0714
 20
6.1
 30
0.0
 10
15.0714
 20
6.1
 30
0.0
 10
15.0714
 20
6.1
 30
0.0
 10
13.7624
 20
7.022
 30
0.0
 10
13.7624
 20
7.022
 30
0.0
 10
13.7624
 20
7.022
 30
0.0
 10
13.7624
 20
7.022
 30
0.0
 10
13.7624
 20
7.2247
 30
0.0
 10
13.7624
 20
7.2247
 30
0.0
 10
13.7624
 20
7.2247
 30
0.0
 10
13.7624
 20
7.2247
 30
0.0
 10
15.0714
 20
7.2247
 30
0.0
 10
15.0714
 20
7.2247
 30
0.0
 10
15.0714
 20
7.2247
 30
0.0
 10
15.0714
 20
7.2247
 30
0.0
 10
15.0714
 20
7.4975
 30
0.0
 10
15.0714
 20
7.4975
 30
0.0
 10
15.0714
 20
7.4975
 30
0.0
 10
15.0714
 20
7.4975
 30
0.0
 10
15.2991
 20
7.4975
 30
0.0
 10
15.2991
 20
7.4975
 30
0.0
 10
15.2991
 20
7.4975
 30
0.0
 10
15.2991
 20
7.4975
 30
0.0
 10
15.2991
 20
7.2247
 30
0.0
 10
15.2991
 20
7.2247
 30
0.0
 10
15.2991
 20
7.2247
 30
0.0
 10
15.2991
 20
7.2247
 30
0.0
 10
15.7826
 20
7.2247
 30
0.0
 10
15.7826
 20
7.2247
 30
0.0
 10
15.7826
 20
7.2247
 30
0.0
 10
15.7826
 20
7.2247
 30
0.0
 10
15.7826
 20
6.9763
 30
0.0
 10
15.7826
 20
6.9763
 30
0.0
  0
SPLINE
  5
CA
330
1F
100
AcDbEntity
  8
ROUND
 62
   250
100
AcDbSpline
210
0.0
220
0.0
230
1.0
 70
    11
 71
     3
 72
    16
 73
    12
 74
     0
 42
0.0000000001
 43
0.0000000001
 40
0.0
 40
0.0
 40
0.0
 40
0.0
 40
0.25
 40
0.25
 40
0.25
 40
0.25
 40
0.5
 40
0.5
 40
0.5
 40
0.5
 40
1.0
 40
1.0
 40
1.0
 40
1.0
 10
15.0714
 20
6.9763
 30
0.0
 10
15.0714
 20
6.9763
 30
0.0
 10
14.1608
 20
6.9763
 30
0.0
 10
14.1608
 20
6.9763
 30
0.0
 10
14.1608
 20
6.9763
 30
0.0
 10
14.1608
 20
6.9763
 30
0.0
 10
15.0714
 20
6.3442
 30
0.0
 10
15.0714
 20
6.3442
 30
0.0
 10
15.0714
 20
6.3442
 30
0.0
 10
15.0714
 20
6.3442
 30
0.0
 10
15.0714
 20
6.9763
 30
0.0
 10
15.0714
 20
6.9763
 30
0.0
  0
SPLINE
  5
CB
330
1F
100
AcDbEntity
  8
ROUND
 62
   250
100
AcDbSpline
210
0.0
220
0.0
230
1.0
 70
    11
 71
     3
 72
    40
 73
    36
 74
     0
 42
0.0000000001
 43
0.0000000001
 40
0.0
 40
0.0
 40
0.0
 40
0.0
 40
0.1
 40
0.1
 40
0.1
 40
0.1
 40
0.2
 40
0.2
 40
0.2
 40
0.2
 40
0.3
 40
0.3
 40
0.3
 40
0.3
 40
0.4
 40
0.4
 40
0.4
 40
0.4
 40
0.5
 40
0.5
 40
0.5
 40
0.5
 40
0.6
 40
0.6
 40
0.6
 40
0.6
 40
0.7
 40
0.7
 40
0.7
 40
0.7
 40
0.8
 40
0.8
 40
0.8
 40
0.8
 40
1.0
 40
1.0
 40
1.0
 40
1.0
 10
15.0929
 20
36.4528
 30
0.0
 10
15.0929
 20
36.4528
 30
0.0
 10
15.0929
 20
36.2049
 30
0.0
 10
15.0929
 20
36.2049
 30
0.0
 10
15.0929
 20
36.2049
 30
0.0
 10
15.0929
 20
36.2049
 30
0.0
 10
13.5125
 20
36.2049
 30
0.0
 10
13.5125
 20
36.2049
 30
0.0
 10
13.5125
 20
36.2049
 30
0.0
 10
13.5694
 20
36.1451
 30
0.0
 10
13.6263
 20
36.0671
 30
0.0
 10
13.6832
 20
35.9702
 30
0.0
 10
13.6832
 20
35.9702
 30
0.0
 10
13.7401
 20
35.8728
 30
0.0
 10
13.7829
 20
35.7858
 30
0.0
 10
13.8112
 20
35.7086
 30
0.0
 10
13.8112
 20
35.7086
 30
0.0
 10
13.8112
 20
35.7086
 30
0.0
 10
13.5717
 20
35.7086
 30
0.0
 10
13.5717
 20
35.7086
 30
0.0
 10
13.5717
 20
35.7086
 30
0.0
 10
13.5064
 20
35.8474
 30
0.0
 10
13.4273
 20
35.9688
 30
0.0
 10
13.3347
 20
36.0727
 30
0.0
 10
13.3347
 20
36.0727
 30
0.0
 10
13.2415
 20
36.1762
 30
0.0
 10
13.1517
 20
36.25
 30
0.0
 10
13.0642
 20
36.2933
 30
0.0
 10
13.0642
 20
36.2933
 30
0.0
 10
13.0642
 20
36.2933
 30
0.0
 10
13.0642
 20
36.4528
 30
0.0
 10
13.0642
 20
36.4528
 30
0.0
 10
13.0642
 20
36.4528
 30
0.0
 10
13.0642
 20
36.4528
 30
0.0
 10
15.0929
 20
36.4528
 30
0.0
 10
15.0929
 20
36.4528
 30
0.0
  0
SPLINE
  5
CC
330
1F
100
AcDbEntity
  8
ROUND
 62
   250
100
AcDbSpline
210
0.0
220
0.0
230
1.0
 70
    11
 71
     3
 72
    68
 73
    64
 74
     0
 42
0.0000000001
 43
0.0000000001
 40
0.0
 40
0.0
 40
0.0
 40
0.0
 40
0.0588235294117647
 40
0.0588235294117647
 40
0.0588235294117647
 40
0.0588235294117647
 40
0.1176470588235294
 40
0.1176470588235294
 40
0.1176470588235294
 40
0.1176470588235294
 40
0.1764705882352941
 40
0.1764705882352941
 40
0.1764705882352941
 40
0.1764705882352941
 40
0.2352941176470588
 40
0.2352941176470588
 40
0.2352941176470588
 40
0.2352941176470588
 40
0.2941176470588235
 40
0.2941176470588235
 40
0.2941176470588235
 40
0.2941176470588235
 40
0.3529411764705883
 40
0.3529411764705883
 40
0.3529411764705883
 40
0.3529411764705883
 40
0.4117647058823529
 40
0.4117647058823529
 40
0.4117647058823529
 40
0.4117647058823529
 40
0.4705882352941176
 40
0.4705882352941176
 40
0.4705882352941176
 40
0.4705882352941176
 40
0.5294117647058824
 40
0.5294117647058824
 40
0.5294117647058824
 40
0.5294117647058824
 40
0.5882352941176471
 40
0.5882352941176471
 40
0.5882352941176471
 40
0.5882352941176471
 40
0.6470588235294118
 40
0.6470588235294118
 40
0.6470588235294118
 40
0.6470588235294118
 40
0.7058823529411765
 40
0.7058823529411765
 40
0.7058823529411765
 40
0.7058823529411765
 40
0.7647058823529411
 40
0.7647058823529411
 40
0.7647058823529411
 40
0.7647058823529411
 40
0.8235294117647058
 40
0.8235294117647058
 40
0.8235294117647058
 40
0.8235294117647058
 40
0.8823529411764706
 40
0.8823529411764706
 40
0.8823529411764706
 40
0.8823529411764706
 40
1.0
 40
1.0
 40
1.0
 40
1.0
 10
13.9974
 20
37.4702
 30
0.0
 10
13.9598
 20
37.3671
 30
0.0
 10
13.9062
 20
37.2909
 30
0.0
 10
13.8361
 20
37.2411
 30
0.0
 10
13.8361
 20
37.2411
 30
0.0
 10
13.7665
 20
37.1917
 30
0.0
 10
13.6827
 20
37.1668
 30
0.0
 10
13.5854
 20
37.1668
 30
0.0
 10
13.5854
 20
37.1668
 30
0.0
 10
13.4382
 20
37.1668
 30
0.0
 10
13.3149
 20
37.2195
 30
0.0
 10
13.2147
 20
37.3253
 30
0.0
 10
13.2147
 20
37.3253
 30
0.0
 10
13.1145
 20
37.4311
 30
0.0
 10
13.0642
 20
37.5713
 30
0.0
 10
13.0642
 20
37.7467
 30
0.0
 10
13.0642
 20
37.7467
 30
0.0
 10
13.0642
 20
37.9231
 30
0.0
 10
13.1155
 20
38.0652
 30
0.0
 10
13.218
 20
38.1729
 30
0.0
 10
13.218
 20
38.1729
 30
0.0
 10
13.3206
 20
38.2801
 30
0.0
 10
13.4452
 20
38.3338
 30
0.0
 10
13.5924
 20
38.3338
 30
0.0
 10
13.5924
 20
38.3338
 30
0.0
 10
13.686
 20
38.3338
 30
0.0
 10
13.7674
 20
38.3093
 30
0.0
 10
13.837
 20
38.2604
 30
0.0
 10
13.837
 20
38.2604
 30
0.0
 10
13.9062
 20
38.211
 30
0.0
 10
13.9598
 20
38.1367
 30
0.0
 10
13.9974
 20
38.0365
 30
0.0
 10
13.9974
 20
38.0365
 30
0.0
 10
14.0379
 20
38.1602
 30
0.0
 10
14.1028
 20
38.2547
 30
0.0
 10
14.1931
 20
38.3196
 30
0.0
 10
14.1931
 20
38.3196
 30
0.0
 10
14.2829
 20
38.3841
 30
0.0
 10
14.3906
 20
38.4165
 30
0.0
 10
14.5153
 20
38.4165
 30
0.0
 10
14.5153
 20
38.4165
 30
0.0
 10
14.6884
 20
38.4165
 30
0.0
 10
14.8333
 20
38.3554
 30
0.0
 10
14.9508
 20
38.2336
 30
0.0
 10
14.9508
 20
38.2336
 30
0.0
 10
15.0684
 20
38.1113
 30
0.0
 10
15.1272
 20
37.9504
 30
0.0
 10
15.1272
 20
37.751
 30
0.0
 10
15.1272
 20
37.751
 30
0.0
 10
15.1272
 20
37.5515
 30
0.0
 10
15.0684
 20
37.3911
 30
0.0
 10
14.9504
 20
37.2688
 30
0.0
 10
14.9504
 20
37.2688
 30
0.0
 10
14.8323
 20
37.1465
 30
0.0
 10
14.6851
 20
37.0854
 30
0.0
 10
14.5087
 20
37.0854
 30
0.0
 10
14.5087
 20
37.0854
 30
0.0
 10
14.3775
 20
37.0854
 30
0.0
 10
14.2674
 20
37.1188
 30
0.0
 10
14.1785
 20
37.1856
 30
0.0
 10
14.1785
 20
37.1856
 30
0.0
 10
14.0901
 20
37.2519
 30
0.0
 10
14.0294
 20
37.3469
 30
0.0
 10
13.9974
 20
37.4702
 30
0.0
  0
SPLINE
  5
CD
330
1F
100
AcDbEntity
  8
ROUND
 62
   250
100
AcDbSpline
210
0.0
220
0.0
230
1.0
 70
    11
 71
     3
 72
    36
 73
    32
 74
     0
 42
0.0000000001
 43
0.0000000001
 40
0.0
 40
0.0
 40
0.0
 40
0.0
 40
0.1111111111111111
 40
0.1111111111111111
 40
0.1111111111111111
 40
0.1111111111111111
 40
0.2222222222222222
 40
0.2222222222222222
 40
0.2222222222222222
 40
0.2222222222222222
 40
0.3333333333333333
 40
0.3333333333333333
 40
0.3333333333333333
 40
0.3333333333333333
 40
0.4444444444444444
 40
0.4444444444444444
 40
0.4444444444444444
 40
0.4444444444444444
 40
0.5555555555555556
 40
0.5555555555555556
 40
0.5555555555555556
 40
0.5555555555555556
 40
0.6666666666666666
 40
0.6666666666666666
 40
0.6666666666666666
 40
0.6666666666666666
 40
0.7777777777777778
 40
0.7777777777777778
 40
0.7777777777777778
 40
0.7777777777777778
 40
1.0
 40
1.0
 40
1.0
 40
1.0
 10
13.5769
 20
37.4203
 30
0.0
 10
13.6724
 20
37.4203
 30
0.0
 10
13.7505
 20
37.4513
 30
0.0
 10
13.8112
 20
37.5125
 30
0.0
 10
13.8112
 20
37.5125
 30
0.0
 10
13.8718
 20
37.5741
 30
0.0
 10
13.9024
 20
37.6541
 30
0.0
 10
13.9024
 20
37.7524
 30
0.0
 10
13.9024
 20
37.7524
 30
0.0
 10
13.9024
 20
37.8479
 30
0.0
 10
13.8723
 20
37.9264
 30
0.0
 10
13.8121
 20
37.9876
 30
0.0
 10
13.8121
 20
37.9876
 30
0.0
 10
13.7519
 20
38.0487
 30
0.0
 10
13.678
 20
38.0788
 30
0.0
 10
13.591
 20
38.0788
 30
0.0
 10
13.591
 20
38.0788
 30
0.0
 10
13.4998
 20
38.0788
 30
0.0
 10
13.4236
 20
38.0478
 30
0.0
 10
13.3615
 20
37.9847
 30
0.0
 10
13.3615
 20
37.9847
 30
0.0
 10
13.2994
 20
37.9217
 30
0.0
 10
13.2683
 20
37.8436
 30
0.0
 10
13.2683
 20
37.7496
 30
0.0
 10
13.2683
 20
37.7496
 30
0.0
 10
13.2683
 20
37.655
 30
0.0
 10
13.2989
 20
37.5765
 30
0.0
 10
13.3591
 20
37.5139
 30
0.0
 10
13.3591
 20
37.5139
 30
0.0
 10
13.4198
 20
37.4513
 30
0.0
 10
13.4927
 20
37.4203
 30
0.0
 10
13.5769
 20
37.4203
 30
0.0
  0
SPLINE
  5
CE
330
1F
100
AcDbEntity
  8
ROUND
 62
   250
100
AcDbSpline
210
0.0
220
0.0
230
1.0
 70
    11
 71
     3
 72
    40
 73
    36
 74
     0
 42
0.0000000001
 43
0.0000000001
 40
0.0
 40
0.0
 40
0.0
 40
0.0
 40
0.1
 40
0.1
 40
0.1
 40
0.1
 40
0.2
 40
0.2
 40
0.2
 40
0.2
 40
0.3
 40
0.3
 40
0.3
 40
0.3
 40
0.4
 40
0.4
 40
0.4
 40
0.4
 40
0.5
 40
0.5
 40
0.5
 40
0.5
 40
0.6
 40
0.6
 40
0.6
 40
0.6
 40
0.7
 40
0.7
 40
0.7
 40
0.7
 40
0.8
 40
0.8
 40
0.8
 40
0.8
 40
1.0
 40
1.0
 40
1.0
 40
1.0
 10
14.5101
 20
37.3403
 30
0.0
 10
14.5807
 20
37.3403
 30
0.0
 10
14.6493
 20
37.3573
 30
0.0
 10
14.7152
 20
37.3907
 30
0.0
 10
14.7152
 20
37.3907
 30
0.0
 10
14.7815
 20
37.4241
 30
0.0
 10
14.8328
 20
37.4739
 30
0.0
 10
14.869
 20
37.5402
 30
0.0
 10
14.869
 20
37.5402
 30
0.0
 10
14.9052
 20
37.6066
 30
0.0
 10
14.9236
 20
37.6776
 30
0.0
 10
14.9236
 20
37.7538
 30
0.0
 10
14.9236
 20
37.7538
 30
0.0
 10
14.9236
 20
37.8723
 30
0.0
 10
14.8855
 20
37.9702
 30
0.0
 10
14.8088
 20
38.0473
 30
0.0
 10
14.8088
 20
38.0473
 30
0.0
 10
14.7326
 20
38.1244
 30
0.0
 10
14.6357
 20
38.163
 30
0.0
 10
14.5181
 20
38.163
 30
0.0
 10
14.5181
 20
38.163
 30
0.0
 10
14.3986
 20
38.163
 30
0.0
 10
14.2999
 20
38.1235
 30
0.0
 10
14.2218
 20
38.044
 30
0.0
 10
14.2218
 20
38.044
 30
0.0
 10
14.1437
 20
37.9645
 30
0.0
 10
14.1047
 20
37.8648
 30
0.0
 10
14.1047
 20
37.7453
 30
0.0
 10
14.1047
 20
37.7453
 30
0.0
 10
14.1047
 20
37.6287
 30
0.0
 10
14.1432
 20
37.5322
 30
0.0
 10
14.2204
 20
37.4556
 30
0.0
 10
14.2204
 20
37.4556
 30
0.0
 10
14.298
 20
37.3789
 30
0.0
 10
14.3944
 20
37.3403
 30
0.0
 10
14.5101
 20
37.3403
 30
0.0
  0
SPLINE
  5
CF
330
1F
100
AcDbEntity
  8
ROUND
 62
   250
100
AcDbSpline
210
0.0
220
0.0
230
1.0
 70
    24
 71
     3
 72
     8
 73
     4
 74
     0
 42
0.0000000001
 43
0.0000000001
 40
0.0
 40
0.0
 40
0.0
 40
0.0
 40
1.0
 40
1.0
 40
1.0
 40
1.0
 10
-9.1867
 20
36.8645
 30
0.0
 10
-9.1867
 20
36.8645
 30
0.0
 10
1.2176
 20
36.8645
 30
0.0
 10
1.2176
 20
36.8645
 30
0.0
  0
SPLINE
  5
D0
330
1F
100
AcDbEntity
  8
ROUND
 62
   250
100
AcDbSpline
210
0.0
220
0.0
230
1.0
 70
    24
 71
     3
 72
     8
 73
     4
 74
     0
 42
0.0000000001
 43
0.0000000001
 40
0.0
 40
0.0
 40
0.0
 40
0.0
 40
1.0
 40
1.0
 40
1.0
 40
1.0
 10
-4.7736
 20
37.2858
 30
0.0
 10
-4.7736
 20
37.2858
 30
0.0
 10
-4.7736
 20
33.6142
 30
0.0
 10
-4.7736
 20
33.6142
 30
0.0
  0
SPLINE
  5
D1
330
1F
100
AcDbEntity
  8
ROUND
 62
   250
100
AcDbSpline
210
0.0
220
0.0
230
1.0
 70
    24
 71
     3
 72
     8
 73
     4
 74
     0
 42
0.0000000001
 43
0.0000000001
 40
0.0
 40
0.0
 40
0.0
 40
0.0
 40
1.0
 40
1.0
 40
1.0
 40
1.0
 10
-3.303
 20
37.3214
 30
0.0
 10
-3.303
 20
37.3214
 30
0.0
 10
-3.303
 20
33.6806
 30
0.0
 10
-3.303
 20
33.6806
 30
0.0
  0
SPLINE
  5
D2
330
1F
100
AcDbEntity
  8
ROUND
 62
   250
100
AcDbSpline
210
0.0
220
0.0
230
1.0
 70
    11
 71
     3
 72
    20
 73
    16
 74
     0
 42
0.0000000001
 43
0.0000000001
 40
0.0
 40
0.0
 40
0.0
 40
0.0
 40
0.2
 40
0.2
 40
0.2
 40
0.2
 40
0.4
 40
0.4
 40
0.4
 40
0.4
 40
0.6
 40
0.6
 40
0.6
 40
0.6
 40
1.0
 40
1.0
 40
1.0
 40
1.0
 10
-7.8824
 20
37.3311
 30
0.0
 10
-7.8824
 20
37.3311
 30
0.0
 10
-4.8824
 20
36.9078
 30
0.0
 10
-4.8824
 20
36.9078
 30
0.0
 10
-4.8824
 20
36.9078
 30
0.0
 10
-4.8824
 20
36.9078
 30
0.0
 10
-4.8824
 20
36.8137
 30
0.0
 10
-4.8824
 20
36.8137
 30
0.0
 10
-4.8824
 20
36.8137
 30
0.0
 10
-4.8824
 20
36.8137
 30
0.0
 10
-7.8824
 20
36.3622
 30
0.0
 10
-7.8824
 20
36.3622
 30
0.0
 10
-7.8824
 20
36.3622
 30
0.0
 10
-7.8824
 20
36.3622
 30
0.0
 10
-7.8824
 20
37.3311
 30
0.0
 10
-7.8824
 20
37.3311
 30
0.0
  0
SPLINE
  5
D3
330
1F
100
AcDbEntity
  8
ROUND
 62
   250
100
AcDbSpline
210
0.0
220
0.0
230
1.0
 70
    11
 71
     3
 72
    20
 73
    16
 74
     0
 42
0.0000000001
 43
0.0000000001
 40
0.0
 40
0.0
 40
0.0
 40
0.0
 40
0.2
 40
0.2
 40
0.2
 40
0.2
 40
0.4
 40
0.4
 40
0.4
 40
0.4
 40
0.6
 40
0.6
 40
0.6
 40
0.6
 40
1.0
 40
1.0
 40
1.0
 40
1.0
 10
-0.1691
 20
36.3744
 30
0.0
 10
-0.1691
 20
36.3744
 30
0.0
 10
-3.1692
 20
36.7978
 30
0.0
 10
-3.1692
 20
36.7978
 30
0.0
 10
-3.1692
 20
36.7978
 30
0.0
 10
-3.1692
 20
36.7978
 30
0.0
 10
-3.1692
 20
36.8918
 30
0.0
 10
-3.1692
 20
36.8918
 30
0.0
 10
-3.1692
 20
36.8918
 30
0.0
 10
-3.1692
 20
36.8918
 30
0.0
 10
-0.1691
 20
37.3433
 30
0.0
 10
-0.1691
 20
37.3433
 30
0.0
 10
-0.1691
 20
37.3433
 30
0.0
 10
-0.1691
 20
37.3433
 30
0.0
 10
-0.1691
 20
36.3744
 30
0.0
 10
-0.1691
 20
36.3744
 30
0.0
  0
SPLINE
  5
D4
330
1F
100
AcDbEntity
  8
ROUND
 62
   250
100
AcDbSpline
210
0.0
220
0.0
230
1.0
 70
    11
 71
     3
 72
    68
 73
    64
 74
     0
 42
0.0000000001
 43
0.0000000001
 40
0.0
 40
0.0
 40
0.0
 40
0.0
 40
0.0588235294117647
 40
0.0588235294117647
 40
0.0588235294117647
 40
0.0588235294117647
 40
0.1176470588235294
 40
0.1176470588235294
 40
0.1176470588235294
 40
0.1176470588235294
 40
0.1764705882352941
 40
0.1764705882352941
 40
0.1764705882352941
 40
0.1764705882352941
 40
0.2352941176470588
 40
0.2352941176470588
 40
0.2352941176470588
 40
0.2352941176470588
 40
0.2941176470588235
 40
0.2941176470588235
 40
0.2941176470588235
 40
0.2941176470588235
 40
0.3529411764705883
 40
0.3529411764705883
 40
0.3529411764705883
 40
0.3529411764705883
 40
0.4117647058823529
 40
0.4117647058823529
 40
0.4117647058823529
 40
0.4117647058823529
 40
0.4705882352941176
 40
0.4705882352941176
 40
0.4705882352941176
 40
0.4705882352941176
 40
0.5294117647058824
 40
0.5294117647058824
 40
0.5294117647058824
 40
0.5294117647058824
 40
0.5882352941176471
 40
0.5882352941176471
 40
0.5882352941176471
 40
0.5882352941176471
 40
0.6470588235294118
 40
0.6470588235294118
 40
0.6470588235294118
 40
0.6470588235294118
 40
0.7058823529411765
 40
0.7058823529411765
 40
0.7058823529411765
 40
0.7058823529411765
 40
0.7647058823529411
 40
0.7647058823529411
 40
0.7647058823529411
 40
0.7647058823529411
 40
0.8235294117647058
 40
0.8235294117647058
 40
0.8235294117647058
 40
0.8235294117647058
 40
0.8823529411764706
 40
0.8823529411764706
 40
0.8823529411764706
 40
0.8823529411764706
 40
1.0
 40
1.0
 40
1.0
 40
1.0
 10
-4.2699
 20
38.745
 30
0.0
 10
-4.373
 20
38.7826
 30
0.0
 10
-4.4492
 20
38.8362
 30
0.0
 10
-4.499
 20
38.9063
 30
0.0
 10
-4.499
 20
38.9063
 30
0.0
 10
-4.5484
 20
38.9759
 30
0.0
 10
-4.5733
 20
39.0597
 30
0.0
 10
-4.5733
 20
39.157
 30
0.0
 10
-4.5733
 20
39.157
 30
0.0
 10
-4.5733
 20
39.3042
 30
0.0
 10
-4.5206
 20
39.4275
 30
0.0
 10
-4.4148
 20
39.5277
 30
0.0
 10
-4.4148
 20
39.5277
 30
0.0
 10
-4.309
 20
39.6279
 30
0.0
 10
-4.1688
 20
39.6782
 30
0.0
 10
-3.9934
 20
39.6782
 30
0.0
 10
-3.9934
 20
39.6782
 30
0.0
 10
-3.817
 20
39.6782
 30
0.0
 10
-3.6749
 20
39.6269
 30
0.0
 10
-3.5672
 20
39.5244
 30
0.0
 10
-3.5672
 20
39.5244
 30
0.0
 10
-3.46
 20
39.4218
 30
0.0
 10
-3.4063
 20
39.2972
 30
0.0
 10
-3.4063
 20
39.15
 30
0.0
 10
-3.4063
 20
39.15
 30
0.0
 10
-3.4063
 20
39.0564
 30
0.0
 10
-3.4308
 20
38.975
 30
0.0
 10
-3.4797
 20
38.9054
 30
0.0
 10
-3.4797
 20
38.9054
 30
0.0
 10
-3.5291
 20
38.8362
 30
0.0
 10
-3.6034
 20
38.7826
 30
0.0
 10
-3.7036
 20
38.745
 30
0.0
 10
-3.7036
 20
38.745
 30
0.0
 10
-3.5799
 20
38.7045
 30
0.0
 10
-3.4854
 20
38.6396
 30
0.0
 10
-3.4205
 20
38.5493
 30
0.0
 10
-3.4205
 20
38.5493
 30
0.0
 10
-3.356
 20
38.4595
 30
0.0
 10
-3.3236
 20
38.3518
 30
0.0
 10
-3.3236
 20
38.2271
 30
0.0
 10
-3.3236
 20
38.2271
 30
0.0
 10
-3.3236
 20
38.054
 30
0.0
 10
-3.3847
 20
37.9091
 30
0.0
 10
-3.5065
 20
37.7916
 30
0.0
 10
-3.5065
 20
37.7916
 30
0.0
 10
-3.6288
 20
37.674
 30
0.0
 10
-3.7897
 20
37.6152
 30
0.0
 10
-3.9891
 20
37.6152
 30
0.0
 10
-3.9891
 20
37.6152
 30
0.0
 10
-4.1886
 20
37.6152
 30
0.0
 10
-4.349
 20
37.674
 30
0.0
 10
-4.4713
 20
37.792
 30
0.0
 10
-4.4713
 20
37.792
 30
0.0
 10
-4.5936
 20
37.9101
 30
0.0
 10
-4.6547
 20
38.0573
 30
0.0
 10
-4.6547
 20
38.2337
 30
0.0
 10
-4.6547
 20
38.2337
 30
0.0
 10
-4.6547
 20
38.3649
 30
0.0
 10
-4.6213
 20
38.475
 30
0.0
 10
-4.5545
 20
38.5639
 30
0.0
 10
-4.5545
 20
38.5639
 30
0.0
 10
-4.4882
 20
38.6523
 30
0.0
 10
-4.3932
 20
38.713
 30
0.0
 10
-4.2699
 20
38.745
 30
0.0
  0
SPLINE
  5
D5
330
1F
100
AcDbEntity
  8
ROUND
 62
   250
100
AcDbSpline
210
0.0
220
0.0
230
1.0
 70
    11
 71
     3
 72
    36
 73
    32
 74
     0
 42
0.0000000001
 43
0.0000000001
 40
0.0
 40
0.0
 40
0.0
 40
0.0
 40
0.1111111111111111
 40
0.1111111111111111
 40
0.1111111111111111
 40
0.1111111111111111
 40
0.2222222222222222
 40
0.2222222222222222
 40
0.2222222222222222
 40
0.2222222222222222
 40
0.3333333333333333
 40
0.3333333333333333
 40
0.3333333333333333
 40
0.3333333333333333
 40
0.4444444444444444
 40
0.4444444444444444
 40
0.4444444444444444
 40
0.4444444444444444
 40
0.5555555555555556
 40
0.5555555555555556
 40
0.5555555555555556
 40
0.5555555555555556
 40
0.6666666666666666
 40
0.6666666666666666
 40
0.6666666666666666
 40
0.6666666666666666
 40
0.7777777777777778
 40
0.7777777777777778
 40
0.7777777777777778
 40
0.7777777777777778
 40
1.0
 40
1.0
 40
1.0
 40
1.0
 10
-4.3198
 20
39.1655
 30
0.0
 10
-4.3198
 20
39.07
 30
0.0
 10
-4.2888
 20
38.9919
 30
0.0
 10
-4.2276
 20
38.9312
 30
0.0
 10
-4.2276
 20
38.9312
 30
0.0
 10
-4.166
 20
38.8706
 30
0.0
 10
-4.086
 20
38.84
 30
0.0
 10
-3.9877
 20
38.84
 30
0.0
 10
-3.9877
 20
38.84
 30
0.0
 10
-3.8922
 20
38.84
 30
0.0
 10
-3.8137
 20
38.8701
 30
0.0
 10
-3.7525
 20
38.9303
 30
0.0
 10
-3.7525
 20
38.9303
 30
0.0
 10
-3.6914
 20
38.9905
 30
0.0
 10
-3.6613
 20
39.0644
 30
0.0
 10
-3.6613
 20
39.1514
 30
0.0
 10
-3.6613
 20
39.1514
 30
0.0
 10
-3.6613
 20
39.2426
 30
0.0
 10
-3.6923
 20
39.3188
 30
0.0
 10
-3.7554
 20
39.3809
 30
0.0
 10
-3.7554
 20
39.3809
 30
0.0
 10
-3.8184
 20
39.443
 30
0.0
 10
-3.8965
 20
39.4741
 30
0.0
 10
-3.9905
 20
39.4741
 30
0.0
 10
-3.9905
 20
39.4741
 30
0.0
 10
-4.0851
 20
39.4741
 30
0.0
 10
-4.1636
 20
39.4435
 30
0.0
 10
-4.2262
 20
39.3833
 30
0.0
 10
-4.2262
 20
39.3833
 30
0.0
 10
-4.2888
 20
39.3226
 30
0.0
 10
-4.3198
 20
39.2497
 30
0.0
 10
-4.3198
 20
39.1655
 30
0.0
  0
SPLINE
  5
D6
330
1F
100
AcDbEntity
  8
ROUND
 62
   250
100
AcDbSpline
210
0.0
220
0.0
230
1.0
 70
    11
 71
     3
 72
    40
 73
    36
 74
     0
 42
0.0000000001
 43
0.0000000001
 40
0.0
 40
0.0
 40
0.0
 40
0.0
 40
0.1
 40
0.1
 40
0.1
 40
0.1
 40
0.2
 40
0.2
 40
0.2
 40
0.2
 40
0.3
 40
0.3
 40
0.3
 40
0.3
 40
0.4
 40
0.4
 40
0.4
 40
0.4
 40
0.5
 40
0.5
 40
0.5
 40
0.5
 40
0.6
 40
0.6
 40
0.6
 40
0.6
 40
0.7
 40
0.7
 40
0.7
 40
0.7
 40
0.8
 40
0.8
 40
0.8
 40
0.8
 40
1.0
 40
1.0
 40
1.0
 40
1.0
 10
-4.3998
 20
38.2323
 30
0.0
 10
-4.3998
 20
38.1617
 30
0.0
 10
-4.3828
 20
38.0931
 30
0.0
 10
-4.3494
 20
38.0272
 30
0.0
 10
-4.3494
 20
38.0272
 30
0.0
 10
-4.316
 20
37.9609
 30
0.0
 10
-4.2662
 20
37.9096
 30
0.0
 10
-4.1999
 20
37.8734
 30
0.0
 10
-4.1999
 20
37.8734
 30
0.0
 10
-4.1335
 20
37.8372
 30
0.0
 10
-4.0625
 20
37.8188
 30
0.0
 10
-3.9863
 20
37.8188
 30
0.0
 10
-3.9863
 20
37.8188
 30
0.0
 10
-3.8678
 20
37.8188
 30
0.0
 10
-3.7699
 20
37.8569
 30
0.0
 10
-3.6928
 20
37.9336
 30
0.0
 10
-3.6928
 20
37.9336
 30
0.0
 10
-3.6157
 20
38.0098
 30
0.0
 10
-3.5771
 20
38.1067
 30
0.0
 10
-3.5771
 20
38.2243
 30
0.0
 10
-3.5771
 20
38.2243
 30
0.0
 10
-3.5771
 20
38.3438
 30
0.0
 10
-3.6166
 20
38.4425
 30
0.0
 10
-3.6961
 20
38.5206
 30
0.0
 10
-3.6961
 20
38.5206
 30
0.0
 10
-3.7756
 20
38.5987
 30
0.0
 10
-3.8753
 20
38.6377
 30
0.0
 10
-3.9948
 20
38.6377
 30
0.0
 10
-3.9948
 20
38.6377
 30
0.0
 10
-4.1114
 20
38.6377
 30
0.0
 10
-4.2079
 20
38.5992
 30
0.0
 10
-4.2845
 20
38.522
 30
0.0
 10
-4.2845
 20
38.522
 30
0.0
 10
-4.3612
 20
38.4444
 30
0.0
 10
-4.3998
 20
38.348
 30
0.0
 10
-4.3998
 20
38.2323
 30
0.0
  0
SPLINE
  5
D7
330
1F
100
AcDbEntity
  8
ROUND
  6
NEW_LINE2
 62
   250
100
AcDbSpline
210
0.0
220
0.0
230
1.0
 70
    24
 71
     3
 72
     8
 73
     4
 74
     0
 42
0.0000000001
 43
0.0000000001
 40
0.0
 40
0.0
 40
0.0
 40
0.0
 40
1.0
 40
1.0
 40
1.0
 40
1.0
 10
-6.3935
 20
-31.2608
 30
0.0
 10
-6.3935
 20
-31.2608
 30
0.0
 10
-6.3935
 20
-38.5495
 30
0.0
 10
-6.3935
 20
-38.5495
 30
0.0
  0
SPLINE
  5
D9
330
1F
100
AcDbEntity
  8
ROUND
  6
NEW_LINE3
 62
   250
100
AcDbSpline
210
0.0
220
0.0
230
1.0
 70
    24
 71
     3
 72
     8
 73
     4
 74
     0
 42
0.0000000001
 43
0.0000000001
 40
0.0
 40
0.0
 40
0.0
 40
0.0
 40
1.0
 40
1.0
 40
1.0
 40
1.0
 10
1.7448
 20
-31.2206
 30
0.0
 10
1.7448
 20
-31.2206
 30
0.0
 10
1.7448
 20
-37.9086
 30
0.0
 10
1.7448
 20
-37.9086
 30
0.0
  0
SPLINE
  5
DB
330
1F
100
AcDbEntity
  8
ROUND
 62
   250
100
AcDbSpline
210
0.0
220
0.0
230
1.0
 70
    24
 71
     3
 72
     8
 73
     4
 74
     0
 42
0.0000000001
 43
0.0000000001
 40
0.0
 40
0.0
 40
0.0
 40
0.0
 40
1.0
 40
1.0
 40
1.0
 40
1.0
 10
5.8174
 20
-35.4422
 30
0.0
 10
5.8174
 20
-35.4422
 30
0.0
 10
-17.0128
 20
-35.4422
 30
0.0
 10
-17.0128
 20
-35.4422
 30
0.0
  0
SPLINE
  5
DC
330
1F
100
AcDbEntity
  8
ROUND
 62
   250
100
AcDbSpline
210
0.0
220
0.0
230
1.0
 70
    11
 71
     3
 72
    16
 73
    12
 74
     0
 42
0.0000000001
 43
0.0000000001
 40
0.0
 40
0.0
 40
0.0
 40
0.0
 40
0.25
 40
0.25
 40
0.25
 40
0.25
 40
0.5
 40
0.5
 40
0.5
 40
0.5
 40
1.0
 40
1.0
 40
1.0
 40
1.0
 10
-6.3715
 20
-35.4111
 30
0.0
 10
-6.3715
 20
-35.4111
 30
0.0
 10
-9.3715
 20
-34.8802
 30
0.0
 10
-9.3715
 20
-34.8802
 30
0.0
 10
-9.3715
 20
-34.8802
 30
0.0
 10
-9.3715
 20
-34.8802
 30
0.0
 10
-9.3715
 20
-35.9421
 30
0.0
 10
-9.3715
 20
-35.9421
 30
0.0
 10
-9.3715
 20
-35.9421
 30
0.0
 10
-9.3715
 20
-35.9421
 30
0.0
 10
-6.3715
 20
-35.4111
 30
0.0
 10
-6.3715
 20
-35.4111
 30
0.0
  0
SPLINE
  5
DD
330
1F
100
AcDbEntity
  8
ROUND
 62
   250
100
AcDbSpline
210
0.0
220
0.0
230
1.0
 70
    11
 71
     3
 72
    16
 73
    12
 74
     0
 42
0.0000000001
 43
0.0000000001
 40
0.0
 40
0.0
 40
0.0
 40
0.0
 40
0.25
 40
0.25
 40
0.25
 40
0.25
 40
0.5
 40
0.5
 40
0.5
 40
0.5
 40
1.0
 40
1.0
 40
1.0
 40
1.0
 10
1.6899
 20
-35.4257
 30
0.0
 10
1.6899
 20
-35.4257
 30
0.0
 10
4.6899
 20
-35.9566
 30
0.0
 10
4.6899
 20
-35.9566
 30
0.0
 10
4.6899
 20
-35.9566
 30
0.0
 10
4.6899
 20
-35.9566
 30
0.0
 10
4.6899
 20
-34.8948
 30
0.0
 10
4.6899
 20
-34.8948
 30
0.0
 10
4.6899
 20
-34.8948
 30
0.0
 10
4.6899
 20
-34.8948
 30
0.0
 10
1.6899
 20
-35.4257
 30
0.0
 10
1.6899
 20
-35.4257
 30
0.0
  0
SPLINE
  5
DE
330
1F
100
AcDbEntity
  8
ROUND
 62
   250
100
AcDbSpline
210
0.0
220
0.0
230
1.0
 70
    11
 71
     3
 72
    84
 73
    80
 74
     0
 42
0.0000000001
 43
0.0000000001
 40
0.0
 40
0.0
 40
0.0
 40
0.0
 40
0.0476190476190476
 40
0.0476190476190476
 40
0.0476190476190476
 40
0.0476190476190476
 40
0.0952380952380952
 40
0.0952380952380952
 40
0.0952380952380952
 40
0.0952380952380952
 40
0.1428571428571428
 40
0.1428571428571428
 40
0.1428571428571428
 40
0.1428571428571428
 40
0.1904761904761905
 40
0.1904761904761905
 40
0.1904761904761905
 40
0.1904761904761905
 40
0.2380952380952381
 40
0.2380952380952381
 40
0.2380952380952381
 40
0.2380952380952381
 40
0.2857142857142857
 40
0.2857142857142857
 40
0.2857142857142857
 40
0.2857142857142857
 40
0.3333333333333333
 40
0.3333333333333333
 40
0.3333333333333333
 40
0.3333333333333333
 40
0.3809523809523809
 40
0.3809523809523809
 40
0.3809523809523809
 40
0.3809523809523809
 40
0.4285714285714285
 40
0.4285714285714285
 40
0.4285714285714285
 40
0.4285714285714285
 40
0.4761904761904762
 40
0.4761904761904762
 40
0.4761904761904762
 40
0.4761904761904762
 40
0.5238095238095238
 40
0.5238095238095238
 40
0.5238095238095238
 40
0.5238095238095238
 40
0.5714285714285714
 40
0.5714285714285714
 40
0.5714285714285714
 40
0.5714285714285714
 40
0.6190476190476191
 40
0.6190476190476191
 40
0.6190476190476191
 40
0.6190476190476191
 40
0.6666666666666666
 40
0.6666666666666666
 40
0.6666666666666666
 40
0.6666666666666666
 40
0.7142857142857143
 40
0.7142857142857143
 40
0.7142857142857143
 40
0.7142857142857143
 40
0.7619047619047619
 40
0.7619047619047619
 40
0.7619047619047619
 40
0.7619047619047619
 40
0.8095238095238095
 40
0.8095238095238095
 40
0.8095238095238095
 40
0.8095238095238095
 40
0.8571428571428571
 40
0.8571428571428571
 40
0.8571428571428571
 40
0.8571428571428571
 40
0.9047619047619048
 40
0.9047619047619048
 40
0.9047619047619048
 40
0.9047619047619048
 40
1.0
 40
1.0
 40
1.0
 40
1.0
 10
-14.0618
 20
-33.068
 30
0.0
 10
-14.0618
 20
-33.068
 30
0.0
 10
-13.8304
 20
-32.8087
 30
0.0
 10
-13.8304
 20
-32.8087
 30
0.0
 10
-13.8304
 20
-32.8087
 30
0.0
 10
-13.8304
 20
-32.8087
 30
0.0
 10
-13.6939
 20
-32.9244
 30
0.0
 10
-13.6939
 20
-32.9244
 30
0.0
 10
-13.6939
 20
-32.9244
 30
0.0
 10
-13.6939
 20
-32.9244
 30
0.0
 10
-13.9362
 20
-33.1973
 30
0.0
 10
-13.9362
 20
-33.1973
 30
0.0
 10
-13.9362
 20
-33.1973
 30
0.0
 10
-13.8572
 20
-33.3149
 30
0.0
 10
-13.804
 20
-33.4178
 30
0.0
 10
-13.7763
 20
-33.5059
 30
0.0
 10
-13.7763
 20
-33.5059
 30
0.0
 10
-13.7396
 20
-33.6216
 30
0.0
 10
-13.7212
 20
-33.7514
 30
0.0
 10
-13.7212
 20
-33.8944
 30
0.0
 10
-13.7212
 20
-33.8944
 30
0.0
 10
-13.7212
 20
-34.1014
 30
0.0
 10
-13.7631
 20
-34.2858
 30
0.0
 10
-13.8468
 20
-34.4471
 30
0.0
 10
-13.8468
 20
-34.4471
 30
0.0
 10
-13.9306
 20
-34.6089
 30
0.0
 10
-14.0477
 20
-34.7313
 30
0.0
 10
-14.1987
 20
-34.8141
 30
0.0
 10
-14.1987
 20
-34.8141
 30
0.0
 10
-14.3502
 20
-34.8963
 30
0.0
 10
-14.5105
 20
-34.9377
 30
0.0
 10
-14.6803
 20
-34.9377
 30
0.0
 10
-14.6803
 20
-34.9377
 30
0.0
 10
-14.8074
 20
-34.9377
 30
0.0
 10
-14.9222
 20
-34.9199
 30
0.0
 10
-15.0252
 20
-34.8841
 30
0.0
 10
-15.0252
 20
-34.8841
 30
0.0
 10
-15.1042
 20
-34.8564
 30
0.0
 10
-15.1964
 20
-34.8036
 30
0.0
 10
-15.3022
 20
-34.7257
 30
0.0
 10
-15.3022
 20
-34.7257
 30
0.0
 10
-15.3022
 20
-34.7257
 30
0.0
 10
-15.5337
 20
-34.9848
 30
0.0
 10
-15.5337
 20
-34.9848
 30
0.0
 10
-15.5337
 20
-34.9848
 30
0.0
 10
-15.5337
 20
-34.9848
 30
0.0
 10
-15.6701
 20
-34.8691
 30
0.0
 10
-15.6701
 20
-34.8691
 30
0.0
 10
-15.6701
 20
-34.8691
 30
0.0
 10
-15.6701
 20
-34.8691
 30
0.0
 10
-15.4273
 20
-34.5977
 30
0.0
 10
-15.4273
 20
-34.5977
 30
0.0
 10
-15.4273
 20
-34.5977
 30
0.0
 10
-15.5177
 20
-34.4608
 30
0.0
 10
-15.5779
 20
-34.3437
 30
0.0
 10
-15.608
 20
-34.2468
 30
0.0
 10
-15.608
 20
-34.2468
 30
0.0
 10
-15.6381
 20
-34.1498
 30
0.0
 10
-15.6537
 20
-34.0332
 30
0.0
 10
-15.6537
 20
-33.8973
 30
0.0
 10
-15.6537
 20
-33.8973
 30
0.0
 10
-15.6537
 20
-33.6898
 30
0.0
 10
-15.6123
 20
-33.505
 30
0.0
 10
-15.5295
 20
-33.3426
 30
0.0
 10
-15.5295
 20
-33.3426
 30
0.0
 10
-15.4467
 20
-33.1803
 30
0.0
 10
-15.331
 20
-33.0575
 30
0.0
 10
-15.1813
 20
-32.9738
 30
0.0
 10
-15.1813
 20
-32.9738
 30
0.0
 10
-15.0323
 20
-32.8906
 30
0.0
 10
-14.8662
 20
-32.8487
 30
0.0
 10
-14.6832
 20
-32.8487
 30
0.0
 10
-14.6832
 20
-32.8487
 30
0.0
 10
-14.5599
 20
-32.8487
 30
0.0
 10
-14.4523
 20
-32.8648
 30
0.0
 10
-14.3601
 20
-32.8977
 30
0.0
 10
-14.3601
 20
-32.8977
 30
0.0
 10
-14.2679
 20
-32.9301
 30
0.0
 10
-14.1681
 20
-32.987
 30
0.0
 10
-14.0618
 20
-33.068
 30
0.0
  0
SPLINE
  5
DF
330
1F
100
AcDbEntity
  8
ROUND
 62
   250
100
AcDbSpline
210
0.0
220
0.0
230
1.0
 70
    11
 71
     3
 72
    32
 73
    28
 74
     0
 42
0.0000000001
 43
0.0000000001
 40
0.0
 40
0.0
 40
0.0
 40
0.0
 40
0.125
 40
0.125
 40
0.125
 40
0.125
 40
0.25
 40
0.25
 40
0.25
 40
0.25
 40
0.375
 40
0.375
 40
0.375
 40
0.375
 40
0.5
 40
0.5
 40
0.5
 40
0.5
 40
0.625
 40
0.625
 40
0.625
 40
0.625
 40
0.75
 40
0.75
 40
0.75
 40
0.75
 40
1.0
 40
1.0
 40
1.0
 40
1.0
 10
-14.2269
 20
-33.2537
 30
0.0
 10
-14.3135
 20
-33.186
 30
0.0
 10
-14.3892
 20
-33.1394
 30
0.0
 10
-14.4536
 20
-33.1145
 30
0.0
 10
-14.4536
 20
-33.1145
 30
0.0
 10
-14.5185
 20
-33.09
 30
0.0
 10
-14.5948
 20
-33.0774
 30
0.0
 10
-14.6818
 20
-33.0774
 30
0.0
 10
-14.6818
 20
-33.0774
 30
0.0
 10
-14.8831
 20
-33.0774
 30
0.0
 10
-15.0491
 20
-33.1455
 30
0.0
 10
-15.1809
 20
-33.2819
 30
0.0
 10
-15.1809
 20
-33.2819
 30
0.0
 10
-15.3122
 20
-33.4184
 30
0.0
 10
-15.378
 20
-33.6221
 30
0.0
 10
-15.378
 20
-33.8935
 30
0.0
 10
-15.378
 20
-33.8935
 30
0.0
 10
-15.378
 20
-33.9998
 30
0.0
 10
-15.3677
 20
-34.0943
 30
0.0
 10
-15.3474
 20
-34.1771
 30
0.0
 10
-15.3474
 20
-34.1771
 30
0.0
 10
-15.3328
 20
-34.2388
 30
0.0
 10
-15.3022
 20
-34.3145
 30
0.0
 10
-15.2552
 20
-34.4043
 30
0.0
 10
-15.2552
 20
-34.4043
 30
0.0
 10
-15.2552
 20
-34.4043
 30
0.0
 10
-14.2269
 20
-33.2537
 30
0.0
 10
-14.2269
 20
-33.2537
 30
0.0
  0
SPLINE
  5
E0
330
1F
100
AcDbEntity
  8
ROUND
 62
   250
100
AcDbSpline
210
0.0
220
0.0
230
1.0
 70
    11
 71
     3
 72
    28
 73
    24
 74
     0
 42
0.0000000001
 43
0.0000000001
 40
0.0
 40
0.0
 40
0.0
 40
0.0
 40
0.1428571428571428
 40
0.1428571428571428
 40
0.1428571428571428
 40
0.1428571428571428
 40
0.2857142857142857
 40
0.2857142857142857
 40
0.2857142857142857
 40
0.2857142857142857
 40
0.4285714285714285
 40
0.4285714285714285
 40
0.4285714285714285
 40
0.4285714285714285
 40
0.5714285714285714
 40
0.5714285714285714
 40
0.5714285714285714
 40
0.5714285714285714
 40
0.7142857142857143
 40
0.7142857142857143
 40
0.7142857142857143
 40
0.7142857142857143
 40
1.0
 40
1.0
 40
1.0
 40
1.0
 10
-14.114
 20
-33.3958
 30
0.0
 10
-14.114
 20
-33.3958
 30
0.0
 10
-15.1381
 20
-34.5422
 30
0.0
 10
-15.1381
 20
-34.5422
 30
0.0
 10
-15.1381
 20
-34.5422
 30
0.0
 10
-15.0675
 20
-34.6
 30
0.0
 10
-15.0021
 20
-34.6405
 30
0.0
 10
-14.9424
 20
-34.6635
 30
0.0
 10
-14.9424
 20
-34.6635
 30
0.0
 10
-14.8643
 20
-34.6941
 30
0.0
 10
-14.7796
 20
-34.7091
 30
0.0
 10
-14.6888
 20
-34.7091
 30
0.0
 10
-14.6888
 20
-34.7091
 30
0.0
 10
-14.4885
 20
-34.7091
 30
0.0
 10
-14.3234
 20
-34.6385
 30
0.0
 10
-14.1925
 20
-34.497
 30
0.0
 10
-14.1925
 20
-34.497
 30
0.0
 10
-14.0623
 20
-34.3554
 30
0.0
 10
-13.9969
 20
-34.1569
 30
0.0
 10
-13.9969
 20
-33.9015
 30
0.0
 10
-13.9969
 20
-33.9015
 30
0.0
 10
-13.9969
 20
-33.7105
 30
0.0
 10
-14.0359
 20
-33.5417
 30
0.0
 10
-14.114
 20
-33.3958
 30
0.0
  0
SPLINE
  5
E1
330
1F
100
AcDbEntity
  8
ROUND
 62
   250
100
AcDbSpline
210
0.0
220
0.0
230
1.0
 70
    11
 71
     3
 72
    92
 73
    88
 74
     0
 42
0.0000000001
 43
0.0000000001
 40
0.0
 40
0.0
 40
0.0
 40
0.0
 40
0.0434782608695652
 40
0.0434782608695652
 40
0.0434782608695652
 40
0.0434782608695652
 40
0.0869565217391304
 40
0.0869565217391304
 40
0.0869565217391304
 40
0.0869565217391304
 40
0.1304347826086956
 40
0.1304347826086956
 40
0.1304347826086956
 40
0.1304347826086956
 40
0.1739130434782609
 40
0.1739130434782609
 40
0.1739130434782609
 40
0.1739130434782609
 40
0.2173913043478261
 40
0.2173913043478261
 40
0.2173913043478261
 40
0.2173913043478261
 40
0.2608695652173913
 40
0.2608695652173913
 40
0.2608695652173913
 40
0.2608695652173913
 40
0.3043478260869565
 40
0.3043478260869565
 40
0.3043478260869565
 40
0.3043478260869565
 40
0.3478260869565217
 40
0.3478260869565217
 40
0.3478260869565217
 40
0.3478260869565217
 40
0.391304347826087
 40
0.391304347826087
 40
0.391304347826087
 40
0.391304347826087
 40
0.4347826086956522
 40
0.4347826086956522
 40
0.4347826086956522
 40
0.4347826086956522
 40
0.4782608695652174
 40
0.4782608695652174
 40
0.4782608695652174
 40
0.4782608695652174
 40
0.5217391304347826
 40
0.5217391304347826
 40
0.5217391304347826
 40
0.5217391304347826
 40
0.5652173913043478
 40
0.5652173913043478
 40
0.5652173913043478
 40
0.5652173913043478
 40
0.6086956521739131
 40
0.6086956521739131
 40
0.6086956521739131
 40
0.6086956521739131
 40
0.6521739130434783
 40
0.6521739130434783
 40
0.6521739130434783
 40
0.6521739130434783
 40
0.6956521739130435
 40
0.6956521739130435
 40
0.6956521739130435
 40
0.6956521739130435
 40
0.7391304347826086
 40
0.7391304347826086
 40
0.7391304347826086
 40
0.7391304347826086
 40
0.782608695652174
 40
0.782608695652174
 40
0.782608695652174
 40
0.782608695652174
 40
0.8260869565217391
 40
0.8260869565217391
 40
0.8260869565217391
 40
0.8260869565217391
 40
0.8695652173913043
 40
0.8695652173913043
 40
0.8695652173913043
 40
0.8695652173913043
 40
0.9130434782608695
 40
0.9130434782608695
 40
0.9130434782608695
 40
0.9130434782608695
 40
1.0
 40
1.0
 40
1.0
 40
1.0
 10
-13.4719
 20
-34.3742
 30
0.0
 10
-13.4719
 20
-34.3742
 30
0.0
 10
-13.2114
 20
-34.3521
 30
0.0
 10
-13.2114
 20
-34.3521
 30
0.0
 10
-13.2114
 20
-34.3521
 30
0.0
 10
-13.192
 20
-34.4791
 30
0.0
 10
-13.1474
 20
-34.5742
 30
0.0
 10
-13.0772
 20
-34.6382
 30
0.0
 10
-13.0772
 20
-34.6382
 30
0.0
 10
-13.0067
 20
-34.702
 30
0.0
 10
-12.9221
 20
-34.734
 30
0.0
 10
-12.8228
 20
-34.734
 30
0.0
 10
-12.8228
 20
-34.734
 30
0.0
 10
-12.7033
 20
-34.734
 30
0.0
 10
-12.6021
 20
-34.689
 30
0.0
 10
-12.5198
 20
-34.5991
 30
0.0
 10
-12.5198
 20
-34.5991
 30
0.0
 10
-12.437
 20
-34.5087
 30
0.0
 10
-12.3956
 20
-34.3892
 30
0.0
 10
-12.3956
 20
-34.2406
 30
0.0
 10
-12.3956
 20
-34.2406
 30
0.0
 10
-12.3956
 20
-34.099
 30
0.0
 10
-12.4352
 20
-33.9875
 30
0.0
 10
-12.5146
 20
-33.9058
 30
0.0
 10
-12.5146
 20
-33.9058
 30
0.0
 10
-12.5941
 20
-33.8239
 30
0.0
 10
-12.6981
 20
-33.7829
 30
0.0
 10
-12.827
 20
-33.7829
 30
0.0
 10
-12.827
 20
-33.7829
 30
0.0
 10
-12.9069
 20
-33.7829
 30
0.0
 10
-12.9789
 20
-33.8013
 30
0.0
 10
-13.0434
 20
-33.8375
 30
0.0
 10
-13.0434
 20
-33.8375
 30
0.0
 10
-13.1078
 20
-33.8738
 30
0.0
 10
-13.1582
 20
-33.9208
 30
0.0
 10
-13.1949
 20
-33.9786
 30
0.0
 10
-13.1949
 20
-33.9786
 30
0.0
 10
-13.1949
 20
-33.9786
 30
0.0
 10
-13.4278
 20
-33.9485
 30
0.0
 10
-13.4278
 20
-33.9485
 30
0.0
 10
-13.4278
 20
-33.9485
 30
0.0
 10
-13.4278
 20
-33.9485
 30
0.0
 10
-13.232
 20
-32.9109
 30
0.0
 10
-13.232
 20
-32.9109
 30
0.0
 10
-13.232
 20
-32.9109
 30
0.0
 10
-13.232
 20
-32.9109
 30
0.0
 10
-12.2273
 20
-32.9109
 30
0.0
 10
-12.2273
 20
-32.9109
 30
0.0
 10
-12.2273
 20
-32.9109
 30
0.0
 10
-12.2273
 20
-32.9109
 30
0.0
 10
-12.2273
 20
-33.1479
 30
0.0
 10
-12.2273
 20
-33.1479
 30
0.0
 10
-12.2273
 20
-33.1479
 30
0.0
 10
-12.2273
 20
-33.1479
 30
0.0
 10
-13.0335
 20
-33.1479
 30
0.0
 10
-13.0335
 20
-33.1479
 30
0.0
 10
-13.0335
 20
-33.1479
 30
0.0
 10
-13.0335
 20
-33.1479
 30
0.0
 10
-13.1427
 20
-33.6907
 30
0.0
 10
-13.1427
 20
-33.6907
 30
0.0
 10
-13.1427
 20
-33.6907
 30
0.0
 10
-13.0213
 20
-33.606
 30
0.0
 10
-12.8937
 20
-33.5637
 30
0.0
 10
-12.7607
 20
-33.5637
 30
0.0
 10
-12.7607
 20
-33.5637
 30
0.0
 10
-12.5842
 20
-33.5637
 30
0.0
 10
-12.4356
 20
-33.6248
 30
0.0
 10
-12.3143
 20
-33.7472
 30
0.0
 10
-12.3143
 20
-33.7472
 30
0.0
 10
-12.1929
 20
-33.8695
 30
0.0
 10
-12.1322
 20
-34.0266
 30
0.0
 10
-12.1322
 20
-34.2185
 30
0.0
 10
-12.1322
 20
-34.2185
 30
0.0
 10
-12.1322
 20
-34.4015
 30
0.0
 10
-12.1859
 20
-34.5595
 30
0.0
 10
-12.2922
 20
-34.6926
 30
0.0
 10
-12.2922
 20
-34.6926
 30
0.0
 10
-12.422
 20
-34.8559
 30
0.0
 10
-12.5988
 20
-34.9377
 30
0.0
 10
-12.8228
 20
-34.9377
 30
0.0
 10
-12.8228
 20
-34.9377
 30
0.0
 10
-13.0067
 20
-34.9377
 30
0.0
 10
-13.1568
 20
-34.8864
 30
0.0
 10
-13.273
 20
-34.7835
 30
0.0
 10
-13.273
 20
-34.7835
 30
0.0
 10
-13.3891
 20
-34.6805
 30
0.0
 10
-13.4554
 20
-34.544
 30
0.0
 10
-13.4719
 20
-34.3742
 30
0.0
  0
SPLINE
  5
E2
330
1F
100
AcDbEntity
  8
ROUND
 62
   250
100
AcDbSpline
210
0.0
220
0.0
230
1.0
 70
    11
 71
     3
 72
    52
 73
    48
 74
     0
 42
0.0000000001
 43
0.0000000001
 40
0.0
 40
0.0
 40
0.0
 40
0.0
 40
0.0769230769230769
 40
0.0769230769230769
 40
0.0769230769230769
 40
0.0769230769230769
 40
0.1538461538461539
 40
0.1538461538461539
 40
0.1538461538461539
 40
0.1538461538461539
 40
0.2307692307692308
 40
0.2307692307692308
 40
0.2307692307692308
 40
0.2307692307692308
 40
0.3076923076923077
 40
0.3076923076923077
 40
0.3076923076923077
 40
0.3076923076923077
 40
0.3846153846153846
 40
0.3846153846153846
 40
0.3846153846153846
 40
0.3846153846153846
 40
0.4615384615384616
 40
0.4615384615384616
 40
0.4615384615384616
 40
0.4615384615384616
 40
0.5384615384615384
 40
0.5384615384615384
 40
0.5384615384615384
 40
0.5384615384615384
 40
0.6153846153846154
 40
0.6153846153846154
 40
0.6153846153846154
 40
0.6153846153846154
 40
0.6923076923076923
 40
0.6923076923076923
 40
0.6923076923076923
 40
0.6923076923076923
 40
0.7692307692307693
 40
0.7692307692307693
 40
0.7692307692307693
 40
0.7692307692307693
 40
0.8461538461538461
 40
0.8461538461538461
 40
0.8461538461538461
 40
0.8461538461538461
 40
1.0
 40
1.0
 40
1.0
 40
1.0
 10
-11.9022
 20
-33.9071
 30
0.0
 10
-11.9022
 20
-33.6682
 30
0.0
 10
-11.8778
 20
-33.4757
 30
0.0
 10
-11.8284
 20
-33.3303
 30
0.0
 10
-11.8284
 20
-33.3303
 30
0.0
 10
-11.7795
 20
-33.1846
 30
0.0
 10
-11.7061
 20
-33.0722
 30
0.0
 10
-11.6092
 20
-32.9931
 30
0.0
 10
-11.6092
 20
-32.9931
 30
0.0
 10
-11.5123
 20
-32.9141
 30
0.0
 10
-11.3904
 20
-32.8746
 30
0.0
 10
-11.2438
 20
-32.8746
 30
0.0
 10
-11.2438
 20
-32.8746
 30
0.0
 10
-11.1351
 20
-32.8746
 30
0.0
 10
-11.04
 20
-32.8968
 30
0.0
 10
-10.9581
 20
-32.9405
 30
0.0
 10
-10.9581
 20
-32.9405
 30
0.0
 10
-10.8764
 20
-32.9837
 30
0.0
 10
-10.809
 20
-33.0468
 30
0.0
 10
-10.7554
 20
-33.1291
 30
0.0
 10
-10.7554
 20
-33.1291
 30
0.0
 10
-10.7023
 20
-33.2114
 30
0.0
 10
-10.6604
 20
-33.3115
 30
0.0
 10
-10.6303
 20
-33.4296
 30
0.0
 10
-10.6303
 20
-33.4296
 30
0.0
 10
-10.5998
 20
-33.5478
 30
0.0
 10
-10.5846
 20
-33.7067
 30
0.0
 10
-10.5846
 20
-33.9071
 30
0.0
 10
-10.5846
 20
-33.9071
 30
0.0
 10
-10.5846
 20
-34.1442
 30
0.0
 10
-10.6092
 20
-34.3352
 30
0.0
 10
-10.6576
 20
-34.481
 30
0.0
 10
-10.6576
 20
-34.481
 30
0.0
 10
-10.7065
 20
-34.6268
 30
0.0
 10
-10.7795
 20
-34.7392
 30
0.0
 10
-10.8764
 20
-34.8188
 30
0.0
 10
-10.8764
 20
-34.8188
 30
0.0
 10
-10.9733
 20
-34.8982
 30
0.0
 10
-11.0955
 20
-34.9377
 30
0.0
 10
-11.2438
 20
-34.9377
 30
0.0
 10
-11.2438
 20
-34.9377
 30
0.0
 10
-11.4385
 20
-34.9377
 30
0.0
 10
-11.5913
 20
-34.8681
 30
0.0
 10
-11.7023
 20
-34.7284
 30
0.0
 10
-11.7023
 20
-34.7284
 30
0.0
 10
-11.8355
 20
-34.5604
 30
0.0
 10
-11.9022
 20
-34.2862
 30
0.0
 10
-11.9022
 20
-33.9071
 30
0.0
  0
SPLINE
  5
E3
330
1F
100
AcDbEntity
  8
ROUND
 62
   250
100
AcDbSpline
210
0.0
220
0.0
230
1.0
 70
    11
 71
     3
 72
    36
 73
    32
 74
     0
 42
0.0000000001
 43
0.0000000001
 40
0.0
 40
0.0
 40
0.0
 40
0.0
 40
0.1111111111111111
 40
0.1111111111111111
 40
0.1111111111111111
 40
0.1111111111111111
 40
0.2222222222222222
 40
0.2222222222222222
 40
0.2222222222222222
 40
0.2222222222222222
 40
0.3333333333333333
 40
0.3333333333333333
 40
0.3333333333333333
 40
0.3333333333333333
 40
0.4444444444444444
 40
0.4444444444444444
 40
0.4444444444444444
 40
0.4444444444444444
 40
0.5555555555555556
 40
0.5555555555555556
 40
0.5555555555555556
 40
0.5555555555555556
 40
0.6666666666666666
 40
0.6666666666666666
 40
0.6666666666666666
 40
0.6666666666666666
 40
0.7777777777777778
 40
0.7777777777777778
 40
0.7777777777777778
 40
0.7777777777777778
 40
1.0
 40
1.0
 40
1.0
 40
1.0
 10
-11.6473
 20
-33.9071
 30
0.0
 10
-11.6473
 20
-34.2388
 30
0.0
 10
-11.6083
 20
-34.4594
 30
0.0
 10
-11.5307
 20
-34.5695
 30
0.0
 10
-11.5307
 20
-34.5695
 30
0.0
 10
-11.453
 20
-34.679
 30
0.0
 10
-11.3575
 20
-34.734
 30
0.0
 10
-11.2438
 20
-34.734
 30
0.0
 10
-11.2438
 20
-34.734
 30
0.0
 10
-11.1294
 20
-34.734
 30
0.0
 10
-11.0339
 20
-34.6785
 30
0.0
 10
-10.9563
 20
-34.5684
 30
0.0
 10
-10.9563
 20
-34.5684
 30
0.0
 10
-10.8787
 20
-34.4585
 30
0.0
 10
-10.8397
 20
-34.2377
 30
0.0
 10
-10.8397
 20
-33.9071
 30
0.0
 10
-10.8397
 20
-33.9071
 30
0.0
 10
-10.8397
 20
-33.5746
 30
0.0
 10
-10.8787
 20
-33.3535
 30
0.0
 10
-10.9563
 20
-33.2443
 30
0.0
 10
-10.9563
 20
-33.2443
 30
0.0
 10
-11.0339
 20
-33.1347
 30
0.0
 10
-11.1304
 20
-33.0801
 30
0.0
 10
-11.2461
 20
-33.0801
 30
0.0
 10
-11.2461
 20
-33.0801
 30
0.0
 10
-11.3604
 20
-33.0801
 30
0.0
 10
-11.4511
 20
-33.1286
 30
0.0
 10
-11.5193
 20
-33.2251
 30
0.0
 10
-11.5193
 20
-33.2251
 30
0.0
 10
-11.6045
 20
-33.3478
 30
0.0
 10
-11.6473
 20
-33.5755
 30
0.0
 10
-11.6473
 20
-33.9071
 30
0.0
  0
SPLINE
  5
E4
330
1F
100
AcDbEntity
  8
ROUND
  6
NEW_LINE4
 62
   250
100
AcDbSpline
210
0.0
220
0.0
230
1.0
 70
    24
 71
     3
 72
     8
 73
     4
 74
     0
 42
0.0000000001
 43
0.0000000001
 40
0.0
 40
0.0
 40
0.0
 40
0.0
 40
1.0
 40
1.0
 40
1.0
 40
1.0
 10
-6.4281
 20
-38.5664
 30
0.0
 10
-6.4281
 20
-38.5664
 30
0.0
 10
-3.0371
 20
-38.2698
 30
0.0
 10
-3.0371
 20
-38.2698
 30
0.0
  0
SPLINE
  5
E6
330
1F
100
AcDbEntity
  8
ROUND
  6
NEW_LINE5
 62
   250
100
AcDbSpline
210
0.0
220
0.0
230
1.0
 70
     8
 71
     3
 72
    16
 73
    12
 74
     0
 42
0.0000000001
 43
0.0000000001
 40
0.0
 40
0.0
 40
0.0
 40
0.0
 40
0.25
 40
0.25
 40
0.25
 40
0.25
 40
0.5
 40
0.5
 40
0.5
 40
0.5
 40
1.0
 40
1.0
 40
1.0
 40
1.0
 10
-3.0707
 20
-38.2797
 30
0.0
 10
-3.0707
 20
-38.2797
 30
0.0
 10
-2.644
 20
-37.3687
 30
0.0
 10
-2.644
 20
-37.3687
 30
0.0
 10
-2.644
 20
-37.3687
 30
0.0
 10
-2.644
 20
-37.3687
 30
0.0
 10
-1.6671
 20
-39.1457
 30
0.0
 10
-1.6671
 20
-39.1457
 30
0.0
 10
-1.6671
 20
-39.1457
 30
0.0
 10
-1.6671
 20
-39.1457
 30
0.0
 10
-1.2404
 20
-38.1223
 30
0.0
 10
-1.2404
 20
-38.1223
 30
0.0
  0
SPLINE
  5
E8
330
1F
100
AcDbEntity
  8
ROUND
  6
NEW_LINE6
 62
   250
100
AcDbSpline
210
0.0
220
0.0
230
1.0
 70
    24
 71
     3
 72
     8
 73
     4
 74
     0
 42
0.0000000001
 43
0.0000000001
 40
0.0
 40
0.0
 40
0.0
 40
0.0
 40
1.0
 40
1.0
 40
1.0
 40
1.0
 10
-1.2516
 20
-38.1136
 30
0.0
 10
-1.2516
 20
-38.1136
 30
0.0
 10
1.7466
 20
-37.8513
 30
0.0
 10
1.7466
 20
-37.8513
 30
0.0
  0
ENDSEC
  0
SECTION
  2
OBJECTS
  0
DICTIONARY
  5
C
330
0
100
AcDbDictionary
  3
ACAD_GROUP
350
D
  3
ACAD_LAYOUT
350
1A
  3
ACAD_MATERIAL
350
3B
  3
ACAD_MLEADERSTYLE
350
10C
  3
ACAD_MLINESTYLE
350
17
  3
ACAD_PLOTSETTINGS
350
19
  3
ACAD_VISUALSTYLE
350
2A
  3
ACDBHEADERROUNDTRIPXREC
350
EA
  3
ACDBVARIABLEDICTIONARY
350
10A
  0
DICTIONARY
  5
D
102
{ACAD_REACTORS
330
C
102
}
330
C
100
AcDbDictionary
  0
DICTIONARY
  5
1A
102
{ACAD_REACTORS
330
C
102
}
330
C
100
AcDbDictionary
  0
DICTIONARY
  5
3B
102
{ACAD_REACTORS
330
C
102
}
330
C
100
AcDbDictionary
  3
BYBLOCK
350
3D
  3
BYLAYER
350
3C
  3
GLOBAL
350
3E
  0
DICTIONARY
  5
10C
102
{ACAD_REACTORS
330
C
102
}
330
C
100
AcDbDictionary
  0
DICTIONARY
  5
17
102
{ACAD_REACTORS
330
C
102
}
330
C
100
AcDbDictionary
  3
STANDARD
350
18
  0
DICTIONARY
  5
19
102
{ACAD_REACTORS
330
C
102
}
330
C
100
AcDbDictionary
  0
DICTIONARY
  5
2A
102
{ACAD_REACTORS
330
C
102
}
330
C
100
AcDbDictionary
  3
2DWIREFRAME
350
2F
  3
3D_HIDDEN
350
31
  3
3DWIREFRAME
350
30
  3
BASIC
350
32
  3
BRIGHTEN
350
36
  3
COLORCHANGE
350
3A
  3
CONCEPTUAL
350
34
  3
DIM
350
35
  3
FACEPATTERN
350
39
  3
FLAT
350
2B
  3
FLATWITHEDGES
350
2C
  3
GOURAUD
350
2D
  3
GOURAUDWITHEDGES
350
2E
  3
LINEPATTERN
350
38
  3
REALISTIC
350
33
  3
THICKEN
350
37
  0
DICTIONARY
  5
EA
102
{ACAD_REACTORS
330
C
102
}
330
C
100
AcDbDictionary
  3
CEPSNTYPE
350
F3
  3
DIMSTYLEDATA
350
109
  3
FINGERPRINTGUID
350
F4
  3
HYPERLINKBASE
350
ED
  3
INSUNITS
350
F2
  3
LAYOUTDICT
350
EF
  3
LWETCUNION
350
F1
  3
PLOTSETDICT
350
F0
  3
PSVPSCALE
350
F6
  3
PUCSBASE
350
F9
  3
PUCSORGBACK
350
FF
  3
PUCSORGBOTTOM
350
FB
  3
PUCSORGFRONT
350
FE
  3
PUCSORGLEFT
350
FC
  3
PUCSORGRIGHT
350
FD
  3
PUCSORGTOP
350
FA
  3
PUCSORTHOREF
350
F7
  3
PUCSORTHOVIEW
350
F8
  3
STYLESHEET
350
EE
  3
TSTACKALIGN
350
EB
  3
TSTACKSIZE
350
EC
  3
UCSBASE
350
102
  3
UCSORGBACK
350
108
  3
UCSORGBOTTOM
350
104
  3
UCSORGFRONT
350
107
  3
UCSORGLEFT
350
105
  3
UCSORGRIGHT
350
106
  3
UCSORGTOP
350
103
  3
UCSORTHOREF
350
100
  3
UCSORTHOVIEW
350
101
  3
VERSIONGUID
350
F5
  0
DICTIONARY
  5
10A
102
{ACAD_REACTORS
330
C
102
}
330
C
100
AcDbDictionary
  3
DIMASSOC
350
10D
  3
HIDETEXT
350
10E
  0
MATERIAL
  5
3D
102
{ACAD_REACTORS
330
3B
102
}
102
{ACAD_XDICTIONARY
360
111
102
}
330
3B
100
AcDbMaterial
  1
ByBlock
  0
MATERIAL
  5
3C
102
{ACAD_REACTORS
330
3B
102
}
102
{ACAD_XDICTIONARY
360
10F
102
}
330
3B
100
AcDbMaterial
  1
ByLayer
  0
MATERIAL
  5
3E
102
{ACAD_REACTORS
330
3B
102
}
102
{ACAD_XDICTIONARY
360
113
102
}
330
3B
100
AcDbMaterial
  1
Global
  0
MLINESTYLE
  5
18
102
{ACAD_REACTORS
330
17
102
}
330
17
100
AcDbMlineStyle
  2
Standard
 70
     0
  3

 62
   256
 51
90.0
 52
90.0
 71
     2
 49
0.5
 62
   256
  6
BYLAYER
 49
-0.5
 62
   256
  6
BYLAYER
  0
ACAD_PROXY_OBJECT
  5
2F
102
{ACAD_REACTORS
330
2A
102
}
330
2A
100
AcDbProxyObject
 90
      499
 91
      501
 93
      436
310
42CC9915DA5C99599C985B595049028333333333333E3BF0000000000000FB0107901411070040501600405405064090741402480A0340
1001
ACAD
1000
AcDbSavedByObjectVersion
1070
     0
  0
ACAD_PROXY_OBJECT
  5
31
102
{ACAD_REACTORS
330
2A
102
}
330
2A
100
AcDbProxyObject
 90
      499
 91
      501
 93
      500
310
424CD108121A5919195B90640502408333333333333E3BF0000000000000FB01079024090700405020000000000001110200405405064090740C02480A0340
1001
ACAD
1000
AcDbSavedByObjectVersion
1070
     0
  0
ACAD_PROXY_OBJECT
  5
30
102
{ACAD_REACTORS
330
2A
102
}
330
2A
100
AcDbProxyObject
 90
      499
 91
      501
 93
      436
310
42CCD915DA5C99599C985B595059028333333333333E3BF0000000000000FB0107901411070040501600405405064090741402480A0340
1001
ACAD
1000
AcDbSavedByObjectVersion
1070
     0
  0
ACAD_PROXY_OBJECT
  5
32
102
{ACAD_REACTORS
330
2A
102
}
330
2A
100
AcDbProxyObject
 90
      499
 91
      501
 93
      388
310
4150985CDA58D07406404333333333333E3BF0000000000000FB0107A41107004050150841D405064090741402480A0350
1001
ACAD
1000
AcDbSavedByObjectVersion
1070
     0
  0
ACAD_PROXY_OBJECT
  5
36
102
{ACAD_REACTORS
330
2A
102
}
330
2A
100
AcDbProxyObject
 90
      499
 91
      501
 93
      428
310
42109C9A59DA1D195B90C409028333333333333E3BF0000000000000FB010790141107004050150841D405064090741402480A029950
1001
ACAD
1000
AcDbSavedByObjectVersion
1070
     0
  0
ACAD_PROXY_OBJECT
  5
3A
102
{ACAD_REACTORS
330
2A
102
}
330
2A
100
AcDbProxyObject
 90
      499
 91
      501
 93
      452
310
42D0DBDB1BDC90DA185B99D95104090240C333333333333E3BF0000000000000FB0108901411070040501508421405064090741402480A0350
1001
ACAD
1000
AcDbSavedByObjectVersion
1070
     0
  0
ACAD_PROXY_OBJECT
  5
34
102
{ACAD_REACTORS
330
2A
102
}
330
2A
100
AcDbProxyObject
 90
      499
 91
      501
 93
      500
310
4290DBDB98D95C1D1D585B10940D028333333333333E3BF0000000000000FB0107902409070040501000000000000111010841D405064090740C02480A0340
1001
ACAD
1000
AcDbSavedByObjectVersion
1070
     0
  0
ACAD_PROXY_OBJECT
  5
35
102
{ACAD_REACTORS
330
2A
102
}
330
2A
100
AcDbProxyObject
 90
      499
 91
      501
 93
      412
310
40D11A5B50B409028333333333333E3BF0000000000000FB010790141107004050150841D405064090741402480A02677FFFFFD0
1001
ACAD
1000
AcDbSavedByObjectVersion
1070
     0
  0
ACAD_PROXY_OBJECT
  5
39
102
{ACAD_REACTORS
330
2A
102
}
330
2A
100
AcDbProxyObject
 90
      499
 91
      501
 93
      444
310
42D19858D95C185D1D195C9B90F409028333333333333E3BF0000000000000FB010790141107004050150841D405064090741402480A0350
1001
ACAD
1000
AcDbSavedByObjectVersion
1070
     0
  0
ACAD_PROXY_OBJECT
  5
2B
102
{ACAD_REACTORS
330
2A
102
}
330
2A
100
AcDbProxyObject
 90
      499
 91
      501
 93
      388
310
41119B185D240901404333333333333E3BF0000000000000F9010740A41107004050150841D405064090741402480A1B50
1001
ACAD
1000
AcDbSavedByObjectVersion
1070
     0
  0
ACAD_PROXY_OBJECT
  5
2C
102
{ACAD_REACTORS
330
2A
102
}
330
2A
100
AcDbProxyObject
 90
      499
 91
      501
 93
      476
310
43519B185D15DA5D1A115919D95CD0140901404333333333333E3BF0000000000000F9010740901411070040501600405405064090741402480A1B50
1001
ACAD
1000
AcDbSavedByObjectVersion
1070
     0
  0
ACAD_PROXY_OBJECT
  5
2D
102
{ACAD_REACTORS
330
2A
102
}
330
2A
100
AcDbProxyObject
 90
      499
 91
      501
 93
      412
310
41D1DBDD5C985D5910240902404333333333333E3BF0000000000000F9010740A411070040501641D405064090741402480A1B50
1001
ACAD
1000
AcDbSavedByObjectVersion
1070
     0
  0
ACAD_PROXY_OBJECT
  5
2E
102
{ACAD_REACTORS
330
2A
102
}
330
2A
100
AcDbProxyObject
 90
      499
 91
      501
 93
      500
310
4411DBDD5C985D5915DA5D1A115919D95CD0340902404333333333333E3BF0000000000000F9010740901411070040501600405405064090741402480A1B50
1001
ACAD
1000
AcDbSavedByObjectVersion
1070
     0
  0
ACAD_PROXY_OBJECT
  5
38
102
{ACAD_REACTORS
330
2A
102
}
330
2A
100
AcDbProxyObject
 90
      499
 91
      501
 93
      444
310
42D31A5B995C185D1D195C9B90E409028333333333333E3BF0000000000000FB010790141107004050750841D405064090741402483A0350
1001
ACAD
1000
AcDbSavedByObjectVersion
1070
     0
  0
ACAD_PROXY_OBJECT
  5
33
102
{ACAD_REACTORS
330
2A
102
}
330
2A
100
AcDbProxyObject
 90
      499
 91
      501
 93
      420
310
425499585B1A5CDD1A58D08409028333333333333E3BF0000000000000FB01079019070040501508421405064090741402480A1B40
1001
ACAD
1000
AcDbSavedByObjectVersion
1070
     0
  0
ACAD_PROXY_OBJECT
  5
37
102
{ACAD_REACTORS
330
2A
102
}
330
2A
100
AcDbProxyObject
 90
      499
 91
      501
 93
      412
310
41D51A1A58DAD95B90D409028333333333333E3BF0000000000000FB010790141107004050150C41D405064090741402480A0350
1001
ACAD
1000
AcDbSavedByObjectVersion
1070
     0
  0
XRECORD
  5
F3
102
{ACAD_REACTORS
330
EA
102
}
330
EA
100
AcDbXrecord
 90
        0
  0
XRECORD
  5
109
102
{ACAD_REACTORS
330
EA
102
}
330
EA
100
AcDbXrecord
1000
DSTYLE
1002
{
1070
   340
340
11
1002
}
  0
XRECORD
  5
F4
102
{ACAD_REACTORS
330
EA
102
}
330
EA
100
AcDbXrecord
  1
{BCB58679-6134-4638-BD73-E3664DE8F152}
  0
XRECORD
  5
ED
102
{ACAD_REACTORS
330
EA
102
}
330
EA
100
AcDbXrecord
  1

  0
XRECORD
  5
F2
102
{ACAD_REACTORS
330
EA
102
}
330
EA
100
AcDbXrecord
 90
        4
  0
XRECORD
  5
EF
102
{ACAD_REACTORS
330
EA
102
}
330
EA
100
AcDbXrecord
340
1A
  0
XRECORD
  5
F1
102
{ACAD_REACTORS
330
EA
102
}
330
EA
100
AcDbXrecord
 90
    10781
  0
XRECORD
  5
F0
102
{ACAD_REACTORS
330
EA
102
}
330
EA
100
AcDbXrecord
340
19
  0
XRECORD
  5
F6
102
{ACAD_REACTORS
330
EA
102
}
330
EA
100
AcDbXrecord
 40
0.0
  0
XRECORD
  5
F9
102
{ACAD_REACTORS
330
EA
102
}
330
EA
100
AcDbXrecord
340
0
  0
XRECORD
  5
FF
102
{ACAD_REACTORS
330
EA
102
}
330
EA
100
AcDbXrecord
 10
0.0
 20
0.0
 30
0.0
  0
XRECORD
  5
FB
102
{ACAD_REACTORS
330
EA
102
}
330
EA
100
AcDbXrecord
 10
0.0
 20
0.0
 30
0.0
  0
XRECORD
  5
FE
102
{ACAD_REACTORS
330
EA
102
}
330
EA
100
AcDbXrecord
 10
0.0
 20
0.0
 30
0.0
  0
XRECORD
  5
FC
102
{ACAD_REACTORS
330
EA
102
}
330
EA
100
AcDbXrecord
 10
0.0
 20
0.0
 30
0.0
  0
XRECORD
  5
FD
102
{ACAD_REACTORS
330
EA
102
}
330
EA
100
AcDbXrecord
 10
0.0
 20
0.0
 30
0.0
  0
XRECORD
  5
FA
102
{ACAD_REACTORS
330
EA
102
}
330
EA
100
AcDbXrecord
 10
0.0
 20
0.0
 30
0.0
  0
XRECORD
  5
F7
102
{ACAD_REACTORS
330
EA
102
}
330
EA
100
AcDbXrecord
340
0
  0
XRECORD
  5
F8
102
{ACAD_REACTORS
330
EA
102
}
330
EA
100
AcDbXrecord
 70
     0
  0
XRECORD
  5
EE
102
{ACAD_REACTORS
330
EA
102
}
330
EA
100
AcDbXrecord
  1

  0
XRECORD
  5
EB
102
{ACAD_REACTORS
330
EA
102
}
330
EA
100
AcDbXrecord
 90
        1
  0
XRECORD
  5
EC
102
{ACAD_REACTORS
330
EA
102
}
330
EA
100
AcDbXrecord
 90
       70
  0
XRECORD
  5
102
102
{ACAD_REACTORS
330
EA
102
}
330
EA
100
AcDbXrecord
340
0
  0
XRECORD
  5
108
102
{ACAD_REACTORS
330
EA
102
}
330
EA
100
AcDbXrecord
 10
0.0
 20
0.0
 30
0.0
  0
XRECORD
  5
104
102
{ACAD_REACTORS
330
EA
102
}
330
EA
100
AcDbXrecord
 10
0.0
 20
0.0
 30
0.0
  0
XRECORD
  5
107
102
{ACAD_REACTORS
330
EA
102
}
330
EA
100
AcDbXrecord
 10
0.0
 20
0.0
 30
0.0
  0
XRECORD
  5
105
102
{ACAD_REACTORS
330
EA
102
}
330
EA
100
AcDbXrecord
 10
0.0
 20
0.0
 30
0.0
  0
XRECORD
  5
106
102
{ACAD_REACTORS
330
EA
102
}
330
EA
100
AcDbXrecord
 10
0.0
 20
0.0
 30
0.0
  0
XRECORD
  5
103
102
{ACAD_REACTORS
330
EA
102
}
330
EA
100
AcDbXrecord
 10
0.0
 20
0.0
 30
0.0
  0
XRECORD
  5
100
102
{ACAD_REACTORS
330
EA
102
}
330
EA
100
AcDbXrecord
340
0
  0
XRECORD
  5
101
102
{ACAD_REACTORS
330
EA
102
}
330
EA
100
AcDbXrecord
 70
     0
  0
XRECORD
  5
F5
102
{ACAD_REACTORS
330
EA
102
}
330
EA
100
AcDbXrecord
  1
{FAEB1C32-E019-11D5-929B-00C0DF256EC4}
  0
DICTIONARYVAR
  5
10D
102
{ACAD_REACTORS
330
10A
102
}
330
10A
100
DictionaryVariables
280
     0
  1
2
  0
DICTIONARYVAR
  5
10E
102
{ACAD_REACTORS
330
10A
102
}
330
10A
100
DictionaryVariables
280
     0
  1
1
  0
DICTIONARY
  5
111
330
3D
100
AcDbDictionary
280
     1
  3
ACAD_XREC_ROUNDTRIP
360
112
  0
DICTIONARY
  5
10F
330
3C
100
AcDbDictionary
280
     1
  3
ACAD_XREC_ROUNDTRIP
360
110
  0
DICTIONARY
  5
113
330
3E
100
AcDbDictionary
280
     1
  3
ACAD_XREC_ROUNDTRIP
360
114
  0
XRECORD
  5
112
102
{ACAD_REACTORS
330
111
102
}
330
111
100
AcDbXrecord
102
MATERIAL
148
0.0
149
0.0
149
0.0
 93
        0
 94
      127
282
     0
 72
     1
 77
     1
171
     1
175
     1
179
     1
273
     0
  0
XRECORD
  5
110
102
{ACAD_REACTORS
330
10F
102
}
330
10F
100
AcDbXrecord
102
MATERIAL
148
0.0
149
0.0
149
0.0
 93
        0
 94
      127
282
     0
 72
     1
 77
     1
171
     1
175
     1
179
     1
273
     0
  0
XRECORD
  5
114
102
{ACAD_REACTORS
330
113
102
}
330
113
100
AcDbXrecord
102
MATERIAL
148
0.0
149
0.0
149
0.0
 93
        0
 94
      127
282
     0
 72
     1
 77
     1
171
     1
175
     1
179
     1
273
     0
  0
ENDSEC
  0
EOF
