  0
SECTION
  2
HEADER
  9
$ACADVER
  1
AC1014
  9
$ACADMAINTVER
 70
     9
  9
$DWGCODEPAGE
  3
ANSI_1250
  9
$INSBASE
 10
0.0
 20
0.0
 30
0.0
  9
$EXTMIN
 10
-15.444
 20
-38.6142
 30
0.0
  9
$EXTMAX
 10
15.444
 20
38.6139
 30
0.0
  9
$LIMMIN
 10
0.0
 20
0.0
  9
$LIMMAX
 10
12.0
 20
9.0
  9
$ORTHOMODE
 70
     0
  9
$REGENMODE
 70
     1
  9
$FILLMODE
 70
     1
  9
$QTEXTMODE
 70
     0
  9
$MIRRTEXT
 70
     1
  9
$DRAGMODE
 70
     2
  9
$LTSCALE
 40
1.0
  9
$OSMODE
 70
    37
  9
$ATTMODE
 70
     1
  9
$TEXTSIZE
 40
0.2
  9
$TRACEWID
 40
0.05
  9
$TEXTSTYLE
  7
STANDARD
  9
$CLAYER
  8
0
  9
$CELTYPE
  6
BYLAYER
  9
$CECOLOR
 62
   256
  9
$CELTSCALE
 40
1.0
  9
$DELOBJ
 70
     1
  9
$DISPSILH
 70
     0
  9
$DIMSCALE
 40
1.0
  9
$DIMASZ
 40
0.18
  9
$DIMEXO
 40
0.0625
  9
$DIMDLI
 40
0.38
  9
$DIMRND
 40
0.0
  9
$DIMDLE
 40
0.0
  9
$DIMEXE
 40
0.18
  9
$DIMTP
 40
0.0
  9
$DIMTM
 40
0.0
  9
$DIMTXT
 40
0.18
  9
$DIMCEN
 40
0.09
  9
$DIMTSZ
 40
0.0
  9
$DIMTOL
 70
     0
  9
$DIMLIM
 70
     0
  9
$DIMTIH
 70
     1
  9
$DIMTOH
 70
     1
  9
$DIMSE1
 70
     0
  9
$DIMSE2
 70
     0
  9
$DIMTAD
 70
     0
  9
$DIMZIN
 70
     0
  9
$DIMBLK
  1

  9
$DIMASO
 70
     1
  9
$DIMSHO
 70
     1
  9
$DIMPOST
  1

  9
$DIMAPOST
  1

  9
$DIMALT
 70
     0
  9
$DIMALTD
 70
     2
  9
$DIMALTF
 40
25.4
  9
$DIMLFAC
 40
1.0
  9
$DIMTOFL
 70
     0
  9
$DIMTVP
 40
0.0
  9
$DIMTIX
 70
     0
  9
$DIMSOXD
 70
     0
  9
$DIMSAH
 70
     0
  9
$DIMBLK1
  1

  9
$DIMBLK2
  1

  9
$DIMSTYLE
  2
STANDARD
  9
$DIMCLRD
 70
     0
  9
$DIMCLRE
 70
     0
  9
$DIMCLRT
 70
     0
  9
$DIMTFAC
 40
1.0
  9
$DIMGAP
 40
0.09
  9
$DIMJUST
 70
     0
  9
$DIMSD1
 70
     0
  9
$DIMSD2
 70
     0
  9
$DIMTOLJ
 70
     1
  9
$DIMTZIN
 70
     0
  9
$DIMALTZ
 70
     0
  9
$DIMALTTZ
 70
     0
  9
$DIMFIT
 70
     3
  9
$DIMUPT
 70
     0
  9
$DIMUNIT
 70
     2
  9
$DIMDEC
 70
     4
  9
$DIMTDEC
 70
     4
  9
$DIMALTU
 70
     2
  9
$DIMALTTD
 70
     2
  9
$DIMTXSTY
  7
STANDARD
  9
$DIMAUNIT
 70
     0
  9
$LUNITS
 70
     2
  9
$LUPREC
 70
     4
  9
$SKETCHINC
 40
0.1
  9
$FILLETRAD
 40
0.5
  9
$AUNITS
 70
     0
  9
$AUPREC
 70
     0
  9
$MENU
  1
.
  9
$ELEVATION
 40
0.0
  9
$PELEVATION
 40
0.0
  9
$THICKNESS
 40
0.0
  9
$LIMCHECK
 70
     0
  9
$CHAMFERA
 40
0.5
  9
$CHAMFERB
 40
0.5
  9
$CHAMFERC
 40
1.0
  9
$CHAMFERD
 40
0.0
  9
$SKPOLY
 70
     0
  9
$TDCREATE
 40
2456223.3423964
  9
$TDUPDATE
 40
2456223.342396412
  9
$TDINDWG
 40
0.0000000116
  9
$TDUSRTIMER
 40
0.0000000116
  9
$USRTIMER
 70
     1
  9
$ANGBASE
 50
0.0
  9
$ANGDIR
 70
     0
  9
$PDMODE
 70
     0
  9
$PDSIZE
 40
0.0
  9
$PLINEWID
 40
0.0
  9
$COORDS
 70
     1
  9
$SPLFRAME
 70
     0
  9
$SPLINETYPE
 70
     6
  9
$SPLINESEGS
 70
     8
  9
$ATTDIA
 70
     0
  9
$ATTREQ
 70
     1
  9
$HANDLING
 70
     1
  9
$HANDSEED
  5
183
  9
$SURFTAB1
 70
     6
  9
$SURFTAB2
 70
     6
  9
$SURFTYPE
 70
     6
  9
$SURFU
 70
     6
  9
$SURFV
 70
     6
  9
$UCSNAME
  2

  9
$UCSORG
 10
0.0
 20
0.0
 30
0.0
  9
$UCSXDIR
 10
1.0
 20
0.0
 30
0.0
  9
$UCSYDIR
 10
0.0
 20
1.0
 30
0.0
  9
$PUCSNAME
  2

  9
$PUCSORG
 10
0.0
 20
0.0
 30
0.0
  9
$PUCSXDIR
 10
1.0
 20
0.0
 30
0.0
  9
$PUCSYDIR
 10
0.0
 20
1.0
 30
0.0
  9
$USERI1
 70
     0
  9
$USERI2
 70
     0
  9
$USERI3
 70
     0
  9
$USERI4
 70
     0
  9
$USERI5
 70
     0
  9
$USERR1
 40
0.0
  9
$USERR2
 40
0.0
  9
$USERR3
 40
0.0
  9
$USERR4
 40
0.0
  9
$USERR5
 40
0.0
  9
$WORLDVIEW
 70
     1
  9
$SHADEDGE
 70
     3
  9
$SHADEDIF
 70
    70
  9
$TILEMODE
 70
     1
  9
$MAXACTVP
 70
    64
  9
$PINSBASE
 10
0.0
 20
0.0
 30
0.0
  9
$PLIMCHECK
 70
     0
  9
$PEXTMIN
 10
1.000000000000000E+20
 20
1.000000000000000E+20
 30
1.000000000000000E+20
  9
$PEXTMAX
 10
-1.000000000000000E+20
 20
-1.000000000000000E+20
 30
-1.000000000000000E+20
  9
$PLIMMIN
 10
0.0
 20
0.0
  9
$PLIMMAX
 10
12.0
 20
9.0
  9
$UNITMODE
 70
     0
  9
$VISRETAIN
 70
     1
  9
$PLINEGEN
 70
     0
  9
$PSLTSCALE
 70
     1
  9
$TREEDEPTH
 70
  3020
  9
$PICKSTYLE
 70
     1
  9
$CMLSTYLE
  2
STANDARD
  9
$CMLJUST
 70
     0
  9
$CMLSCALE
 40
1.0
  9
$PROXYGRAPHICS
 70
     1
  9
$MEASUREMENT
 70
     0
  0
ENDSEC
  0
SECTION
  2
CLASSES
  0
CLASS
  1
ACDBDICTIONARYWDFLT
  2
AcDbDictionaryWithDefault
  3
ObjectDBX Classes
 90
        0
280
     0
281
     0
  0
CLASS
  1
VISUALSTYLE
  2
AcDbVisualStyle
  3
ObjectDBX Classes
 90
     4095
280
     0
281
     0
  0
CLASS
  1
MATERIAL
  2
AcDbMaterial
  3
ObjectDBX Classes
 90
     1153
280
     0
281
     0
  0
CLASS
  1
DICTIONARYVAR
  2
AcDbDictionaryVar
  3
ObjectDBX Classes
 90
        0
280
     0
281
     0
  0
CLASS
  1
XRECORD
  2
AcDbXrecord
  3
AutoCAD 2000
 90
        0
280
     0
281
     0
  0
CLASS
  1
LWPOLYLINE
  2
AcDbPolyline
  3
AutoCAD 2000
 90
        0
280
     0
281
     1
  0
CLASS
  1
HATCH
  2
AcDbHatch
  3
AutoCAD 2000
 90
        0
280
     0
281
     1
  0
CLASS
  1
ACDBPLACEHOLDER
  2
AcDbPlaceHolder
  3
ObjectDBX Classes
 90
        0
280
     0
281
     0
  0
CLASS
  1
LAYOUT
  2
AcDbLayout
  3
ObjectDBX Classes
 90
        0
280
     0
281
     0
  0
ENDSEC
  0
SECTION
  2
TABLES
  0
TABLE
  2
VPORT
  5
8
330
0
100
AcDbSymbolTable
 70
     1
  0
VPORT
  5
29
330
8
100
AcDbSymbolTableRecord
100
AcDbViewportTableRecord
  2
*ACTIVE
 70
     0
 10
0.0
 20
0.0
 11
1.0
 21
1.0
 12
10.42990654205607
 22
4.5
 13
0.0
 23
0.0
 14
0.5
 24
0.5
 15
0.5
 25
0.5
 16
0.0
 26
0.0
 36
1.0
 17
0.0
 27
0.0
 37
0.0
 40
9.0
 41
1.972972972850329
 42
50.0
 43
0.0
 44
0.0
 50
0.0
 51
0.0
 71
     0
 72
   100
 73
     1
 74
     3
 75
     0
 76
     0
 77
     0
 78
     0
  0
ENDTAB
  0
TABLE
  2
LTYPE
  5
5
330
0
100
AcDbSymbolTable
 70
     3
  0
LTYPE
  5
14
330
5
100
AcDbSymbolTableRecord
100
AcDbLinetypeTableRecord
  2
BYBLOCK
 70
     0
  3

 72
    65
 73
     0
 40
0.0
  0
LTYPE
  5
15
330
5
100
AcDbSymbolTableRecord
100
AcDbLinetypeTableRecord
  2
BYLAYER
 70
     0
  3

 72
    65
 73
     0
 40
0.0
  0
LTYPE
  5
16
330
5
100
AcDbSymbolTableRecord
100
AcDbLinetypeTableRecord
  2
CONTINUOUS
 70
     0
  3
Solid line
 72
    65
 73
     0
 40
0.0
  0
LTYPE
  5
4F
330
5
100
AcDbSymbolTableRecord
100
AcDbLinetypeTableRecord
  2
NEW_LINE1
 70
     0
  3

 72
    65
 73
     4
 40
1.2
 49
0.5
 74
     4
 75
     0
340
0
 46
1.0
 50
0.0
 44
0.0
 45
0.0
 49
-0.3
 74
     4
 75
     0
340
0
 46
1.0
 50
0.0
 44
0.0
 45
0.0
 49
0.1
 74
     4
 75
     0
340
0
 46
1.0
 50
0.0
 44
0.0
 45
0.0
 49
-0.3
 74
     4
 75
     0
340
0
 46
1.0
 50
0.0
 44
0.0
 45
0.0
  0
LTYPE
  5
C7
330
5
100
AcDbSymbolTableRecord
100
AcDbLinetypeTableRecord
  2
NEW_LINE2
 70
     0
  3

 72
    65
 73
     4
 40
1.2
 49
0.5
 74
     4
 75
     0
340
0
 46
1.0
 50
0.0
 44
0.0
 45
0.0
 49
-0.3
 74
     4
 75
     0
340
0
 46
1.0
 50
0.0
 44
0.0
 45
0.0
 49
0.1
 74
     4
 75
     0
340
0
 46
1.0
 50
0.0
 44
0.0
 45
0.0
 49
-0.3
 74
     4
 75
     0
340
0
 46
1.0
 50
0.0
 44
0.0
 45
0.0
  0
ENDTAB
  0
TABLE
  2
LAYER
  5
2
330
0
100
AcDbSymbolTable
 70
     2
  0
LAYER
  5
10
330
2
100
AcDbSymbolTableRecord
100
AcDbLayerTableRecord
  2
0
 70
     0
 62
     7
  6
CONTINUOUS
  0
LAYER
  5
40
330
2
100
AcDbSymbolTableRecord
100
AcDbLayerTableRecord
  2
AXIS
 70
     0
 62
     7
  6
CONTINUOUS
  0
ENDTAB
  0
TABLE
  2
STYLE
  5
3
330
0
100
AcDbSymbolTable
 70
     1
  0
STYLE
  5
11
330
3
100
AcDbSymbolTableRecord
100
AcDbTextStyleTableRecord
  2
STANDARD
 70
     0
 40
0.0
 41
1.0
 50
0.0
 71
     0
 42
0.2
  3
txt
  4

  0
ENDTAB
  0
TABLE
  2
VIEW
  5
6
330
0
100
AcDbSymbolTable
 70
     0
  0
ENDTAB
  0
TABLE
  2
UCS
  5
7
330
0
100
AcDbSymbolTable
 70
     0
  0
ENDTAB
  0
TABLE
  2
APPID
  5
9
330
0
100
AcDbSymbolTable
 70
     2
  0
APPID
  5
12
330
9
100
AcDbSymbolTableRecord
100
AcDbRegAppTableRecord
  2
ACAD
 70
     0
  0
APPID
  5
3F
330
9
100
AcDbSymbolTableRecord
100
AcDbRegAppTableRecord
  2
ODA
 70
     0
  0
ENDTAB
  0
TABLE
  2
DIMSTYLE
  5
A
330
0
100
AcDbSymbolTable
 70
     1
  0
DIMSTYLE
105
27
330
A
100
AcDbSymbolTableRecord
100
AcDbDimStyleTableRecord
  2
STANDARD
 70
     0
  3

  4

  5

  6

  7

 40
1.0
 41
0.18
 42
0.0625
 43
0.38
 44
0.18
 45
0.0
 46
0.0
 47
0.0
 48
0.0
140
0.18
141
0.09
142
0.0
143
25.4
144
1.0
145
0.0
146
1.0
147
0.09
 71
     0
 72
     0
 73
     1
 74
     1
 75
     0
 76
     0
 77
     0
 78
     0
170
     0
171
     2
172
     0
173
     0
174
     0
175
     0
176
     0
177
     0
178
     0
270
     2
271
     4
272
     4
273
     2
274
     2
340
11
275
     0
280
     0
281
     0
282
     0
283
     1
284
     0
285
     0
286
     0
287
     3
288
     0
  0
ENDTAB
  0
TABLE
  2
BLOCK_RECORD
  5
1
330
0
100
AcDbSymbolTable
 70
     1
  0
BLOCK_RECORD
  5
1F
330
1
100
AcDbSymbolTableRecord
100
AcDbBlockTableRecord
  2
*MODEL_SPACE
  0
BLOCK_RECORD
  5
1B
330
1
100
AcDbSymbolTableRecord
100
AcDbBlockTableRecord
  2
*PAPER_SPACE
  0
ENDTAB
  0
ENDSEC
  0
SECTION
  2
BLOCKS
  0
BLOCK
  5
20
330
1F
100
AcDbEntity
  8
0
100
AcDbBlockBegin
  2
*MODEL_SPACE
 70
     0
 10
0.0
 20
0.0
 30
0.0
  3
*MODEL_SPACE
  1

  0
ENDBLK
  5
21
330
1F
100
AcDbEntity
  8
0
100
AcDbBlockEnd
  0
BLOCK
  5
1C
330
1B
100
AcDbEntity
 67
     1
  8
0
100
AcDbBlockBegin
  2
*PAPER_SPACE
 70
     0
 10
0.0
 20
0.0
 30
0.0
  3
*PAPER_SPACE
  1

  0
ENDBLK
  5
1D
330
1B
100
AcDbEntity
 67
     1
  8
0
100
AcDbBlockEnd
  0
ENDSEC
  0
SECTION
  2
ENTITIES
  0
SPLINE
  5
41
330
1F
100
AcDbEntity
  8
AXIS
 62
   250
100
AcDbSpline
210
0.0
220
0.0
230
1.0
 70
    24
 71
     3
 72
     8
 73
     4
 74
     0
 42
0.0000000001
 43
0.0000000001
 40
0.0
 40
0.0
 40
0.0
 40
0.0
 40
1.0
 40
1.0
 40
1.0
 40
1.0
 10
-8.4883
 20
-36.0514
 30
0.0
 10
-8.4883
 20
-36.0514
 30
0.0
 10
-8.4883
 20
-38.4499
 30
0.0
 10
-8.4883
 20
-38.4499
 30
0.0
  0
SPLINE
  5
42
330
1F
100
AcDbEntity
  8
AXIS
 62
   250
100
AcDbSpline
210
0.0
220
0.0
230
1.0
 70
    24
 71
     3
 72
     8
 73
     4
 74
     0
 42
0.0000000001
 43
0.0000000001
 40
0.0
 40
0.0
 40
0.0
 40
0.0
 40
1.0
 40
1.0
 40
1.0
 40
1.0
 10
1.0035
 20
-36.3464
 30
0.0
 10
1.0035
 20
-36.3464
 30
0.0
 10
1.0035
 20
-38.6142
 30
0.0
 10
1.0035
 20
-38.6142
 30
0.0
  0
SPLINE
  5
43
330
1F
100
AcDbEntity
  8
AXIS
 62
   250
100
AcDbSpline
210
0.0
220
0.0
230
1.0
 70
    24
 71
     3
 72
     8
 73
     4
 74
     0
 42
0.0000000001
 43
0.0000000001
 40
0.0
 40
0.0
 40
0.0
 40
0.0
 40
1.0
 40
1.0
 40
1.0
 40
1.0
 10
-12.9408
 20
-37.758
 30
0.0
 10
-12.9408
 20
-37.758
 30
0.0
 10
10.62
 20
-37.758
 30
0.0
 10
10.62
 20
-37.758
 30
0.0
  0
SPLINE
  5
44
330
1F
100
AcDbEntity
  8
AXIS
 62
   250
100
AcDbSpline
210
0.0
220
0.0
230
1.0
 70
    24
 71
     3
 72
     8
 73
     4
 74
     0
 42
0.0000000001
 43
0.0000000001
 40
0.0
 40
0.0
 40
0.0
 40
0.0
 40
1.0
 40
1.0
 40
1.0
 40
1.0
 10
3.5469
 20
-26.2577
 30
0.0
 10
3.5469
 20
-26.2577
 30
0.0
 10
15.276
 20
-26.2577
 30
0.0
 10
15.276
 20
-26.2577
 30
0.0
  0
SPLINE
  5
45
330
1F
100
AcDbEntity
  8
AXIS
 62
   250
100
AcDbSpline
210
0.0
220
0.0
230
1.0
 70
    24
 71
     3
 72
     8
 73
     4
 74
     0
 42
0.0000000001
 43
0.0000000001
 40
0.0
 40
0.0
 40
0.0
 40
0.0
 40
1.0
 40
1.0
 40
1.0
 40
1.0
 10
-1.616
 20
30.8577
 30
0.0
 10
-1.616
 20
30.8577
 30
0.0
 10
15.444
 20
30.8577
 30
0.0
 10
15.444
 20
30.8577
 30
0.0
  0
SPLINE
  5
46
330
1F
100
AcDbEntity
  8
AXIS
 62
   250
100
AcDbSpline
210
0.0
220
0.0
230
1.0
 70
    24
 71
     3
 72
     8
 73
     4
 74
     0
 42
0.0000000001
 43
0.0000000001
 40
0.0
 40
0.0
 40
0.0
 40
0.0
 40
1.0
 40
1.0
 40
1.0
 40
1.0
 10
14.779
 20
-24.5952
 30
0.0
 10
14.779
 20
-24.5952
 30
0.0
 10
14.779
 20
29.2656
 30
0.0
 10
14.779
 20
29.2656
 30
0.0
  0
SPLINE
  5
47
330
1F
100
AcDbEntity
  8
AXIS
 62
   250
100
AcDbSpline
210
0.0
220
0.0
230
1.0
 70
    24
 71
     3
 72
     8
 73
     4
 74
     0
 42
0.0000000001
 43
0.0000000001
 40
0.0
 40
0.0
 40
0.0
 40
0.0
 40
1.0
 40
1.0
 40
1.0
 40
1.0
 10
-4.5857
 20
33.7328
 30
0.0
 10
-4.5857
 20
33.7328
 30
0.0
 10
-4.5857
 20
36.1604
 30
0.0
 10
-4.5857
 20
36.1604
 30
0.0
  0
SPLINE
  5
48
330
1F
100
AcDbEntity
  8
AXIS
 62
   250
100
AcDbSpline
210
0.0
220
0.0
230
1.0
 70
    24
 71
     3
 72
     8
 73
     4
 74
     0
 42
0.0000000001
 43
0.0000000001
 40
0.0
 40
0.0
 40
0.0
 40
0.0
 40
1.0
 40
1.0
 40
1.0
 40
1.0
 10
-2.935
 20
33.7124
 30
0.0
 10
-2.935
 20
33.7124
 30
0.0
 10
-2.935
 20
36.1759
 30
0.0
 10
-2.935
 20
36.1759
 30
0.0
  0
SPLINE
  5
49
330
1F
100
AcDbEntity
  8
AXIS
 62
   250
100
AcDbSpline
210
0.0
220
0.0
230
1.0
 70
    24
 71
     3
 72
     8
 73
     4
 74
     0
 42
0.0000000001
 43
0.0000000001
 40
0.0
 40
0.0
 40
0.0
 40
0.0
 40
1.0
 40
1.0
 40
1.0
 40
1.0
 10
-8.119
 20
35.6308
 30
0.0
 10
-8.119
 20
35.6308
 30
0.0
 10
1.2286
 20
35.6308
 30
0.0
 10
1.2286
 20
35.6308
 30
0.0
  0
SPLINE
  5
4A
330
1F
100
AcDbEntity
  8
AXIS
 62
   250
100
AcDbSpline
210
0.0
220
0.0
230
1.0
 70
    24
 71
     3
 72
     8
 73
     4
 74
     0
 42
0.0000000001
 43
0.0000000001
 40
0.0
 40
0.0
 40
0.0
 40
0.0
 40
1.0
 40
1.0
 40
1.0
 40
1.0
 10
-5.5803
 20
30.8577
 30
0.0
 10
-5.5803
 20
30.8577
 30
0.0
 10
-11.0625
 20
30.8577
 30
0.0
 10
-11.0625
 20
30.8577
 30
0.0
  0
SPLINE
  5
4B
330
1F
100
AcDbEntity
  8
AXIS
 62
   250
100
AcDbSpline
210
0.0
220
0.0
230
1.0
 70
    24
 71
     3
 72
     8
 73
     4
 74
     0
 42
0.0000000001
 43
0.0000000001
 40
0.0
 40
0.0
 40
0.0
 40
0.0
 40
1.0
 40
1.0
 40
1.0
 40
1.0
 10
-5.5482
 20
32.3434
 30
0.0
 10
-5.5482
 20
32.3434
 30
0.0
 10
-11.0389
 20
32.3434
 30
0.0
 10
-11.0389
 20
32.3434
 30
0.0
  0
SPLINE
  5
4C
330
1F
100
AcDbEntity
  8
AXIS
 62
   250
100
AcDbSpline
210
0.0
220
0.0
230
1.0
 70
    24
 71
     3
 72
     8
 73
     4
 74
     0
 42
0.0000000001
 43
0.0000000001
 40
0.0
 40
0.0
 40
0.0
 40
0.0
 40
1.0
 40
1.0
 40
1.0
 40
1.0
 10
-10.5022
 20
27.2472
 30
0.0
 10
-10.5022
 20
27.2472
 30
0.0
 10
-10.5022
 20
36.5549
 30
0.0
 10
-10.5022
 20
36.5549
 30
0.0
  0
SPLINE
  5
4D
330
1F
100
AcDbEntity
  8
AXIS
 62
   250
100
AcDbSpline
210
0.0
220
0.0
230
1.0
 70
    24
 71
     3
 72
     8
 73
     4
 74
     0
 42
0.0000000001
 43
0.0000000001
 40
0.0
 40
0.0
 40
0.0
 40
0.0
 40
1.0
 40
1.0
 40
1.0
 40
1.0
 10
-15.444
 20
-18.2901
 30
0.0
 10
-15.444
 20
-18.2901
 30
0.0
 10
11.9731
 20
-18.2901
 30
0.0
 10
11.9731
 20
-18.2901
 30
0.0
  0
SPLINE
  5
4E
330
1F
100
AcDbEntity
  8
AXIS
  6
NEW_LINE1
 62
   250
100
AcDbSpline
210
0.0
220
0.0
230
1.0
 70
    24
 71
     3
 72
     8
 73
     4
 74
     0
 42
0.0000000001
 43
0.0000000001
 40
0.0
 40
0.0
 40
0.0
 40
0.0
 40
1.0
 40
1.0
 40
1.0
 40
1.0
 10
-3.7604
 20
-36.1103
 30
0.0
 10
-3.7604
 20
-36.1103
 30
0.0
 10
-3.7604
 20
34.1413
 30
0.0
 10
-3.7604
 20
34.1413
 30
0.0
  0
SPLINE
  5
50
330
1F
100
AcDbEntity
  8
AXIS
 62
   250
100
AcDbSpline
210
0.0
220
0.0
230
1.0
 70
    24
 71
     3
 72
     8
 73
     4
 74
     0
 42
0.0000000001
 43
0.0000000001
 40
0.0
 40
0.0
 40
0.0
 40
0.0
 40
1.0
 40
1.0
 40
1.0
 40
1.0
 10
-10.776
 20
-16.6009
 30
0.0
 10
-10.776
 20
-16.6009
 30
0.0
 10
-10.776
 20
-18.4552
 30
0.0
 10
-10.776
 20
-18.4552
 30
0.0
  0
SPLINE
  5
51
330
1F
100
AcDbEntity
  8
AXIS
 62
   250
100
AcDbSpline
210
0.0
220
0.0
230
1.0
 70
    24
 71
     3
 72
     8
 73
     4
 74
     0
 42
0.0000000001
 43
0.0000000001
 40
0.0
 40
0.0
 40
0.0
 40
0.0
 40
1.0
 40
1.0
 40
1.0
 40
1.0
 10
3.2552
 20
-16.6009
 30
0.0
 10
3.2552
 20
-16.6009
 30
0.0
 10
3.2552
 20
-18.4552
 30
0.0
 10
3.2552
 20
-18.4552
 30
0.0
  0
SPLINE
  5
52
330
1F
100
AcDbEntity
  8
AXIS
 62
   250
100
AcDbSpline
210
0.0
220
0.0
230
1.0
 70
    24
 71
     3
 72
     8
 73
     4
 74
     0
 42
0.0000000001
 43
0.0000000001
 40
0.0
 40
0.0
 40
0.0
 40
0.0
 40
1.0
 40
1.0
 40
1.0
 40
1.0
 10
2.9663
 20
-26.2577
 30
0.0
 10
2.9663
 20
-26.2577
 30
0.0
 10
-10.4872
 20
-26.2577
 30
0.0
 10
-10.4872
 20
-26.2577
 30
0.0
  0
SPLINE
  5
53
330
1F
100
AcDbEntity
  8
AXIS
 62
   250
100
AcDbSpline
210
0.0
220
0.0
230
1.0
 70
    24
 71
     3
 72
     8
 73
     4
 74
     0
 42
0.0000000001
 43
0.0000000001
 40
0.0
 40
0.0
 40
0.0
 40
0.0
 40
1.0
 40
1.0
 40
1.0
 40
1.0
 10
-6.97
 20
-24.5307
 30
0.0
 10
-6.97
 20
-24.5307
 30
0.0
 10
-8.1464
 20
-24.696
 30
0.0
 10
-8.1464
 20
-24.696
 30
0.0
  0
SPLINE
  5
54
330
1F
100
AcDbEntity
  8
AXIS
 62
   250
100
AcDbSpline
210
0.0
220
0.0
230
1.0
 70
    24
 71
     3
 72
     8
 73
     4
 74
     0
 42
0.0000000001
 43
0.0000000001
 40
0.0
 40
0.0
 40
0.0
 40
0.0
 40
1.0
 40
1.0
 40
1.0
 40
1.0
 10
-1.0367
 20
-24.9839
 30
0.0
 10
-1.0367
 20
-24.9839
 30
0.0
 10
0.6965
 20
-24.9536
 30
0.0
 10
0.6965
 20
-24.9536
 30
0.0
  0
SPLINE
  5
55
330
1F
100
AcDbEntity
  8
AXIS
 62
   250
100
AcDbSpline
210
0.0
220
0.0
230
1.0
 70
    24
 71
     3
 72
     8
 73
     4
 74
     0
 42
0.0000000001
 43
0.0000000001
 40
0.0
 40
0.0
 40
0.0
 40
0.0
 40
1.0
 40
1.0
 40
1.0
 40
1.0
 10
2.9663
 20
-25.5149
 30
0.0
 10
2.9663
 20
-25.5149
 30
0.0
 10
-3.0176
 20
-25.5149
 30
0.0
 10
-3.0176
 20
-25.5149
 30
0.0
  0
SPLINE
  5
56
330
1F
100
AcDbEntity
  8
AXIS
 62
   250
100
AcDbSpline
210
0.0
220
0.0
230
1.0
 70
    24
 71
     3
 72
     8
 73
     4
 74
     0
 42
0.0000000001
 43
0.0000000001
 40
0.0
 40
0.0
 40
0.0
 40
0.0
 40
1.0
 40
1.0
 40
1.0
 40
1.0
 10
-4.5032
 20
-25.5149
 30
0.0
 10
-4.5032
 20
-25.5149
 30
0.0
 10
-10.4872
 20
-25.5149
 30
0.0
 10
-10.4872
 20
-25.5149
 30
0.0
  0
SPLINE
  5
57
330
1F
100
AcDbEntity
  8
AXIS
 62
   250
100
AcDbSpline
210
0.0
220
0.0
230
1.0
 70
    24
 71
     3
 72
     8
 73
     4
 74
     0
 42
0.0000000001
 43
0.0000000001
 40
0.0
 40
0.0
 40
0.0
 40
0.0
 40
1.0
 40
1.0
 40
1.0
 40
1.0
 10
-9.1253
 20
-25.3333
 30
0.0
 10
-9.1253
 20
-25.3333
 30
0.0
 10
-4.5032
 20
-25.3333
 30
0.0
 10
-4.5032
 20
-25.3333
 30
0.0
  0
SPLINE
  5
58
330
1F
100
AcDbEntity
  8
AXIS
 62
   250
100
AcDbSpline
210
0.0
220
0.0
230
1.0
 70
    24
 71
     3
 72
     8
 73
     4
 74
     0
 42
0.0000000001
 43
0.0000000001
 40
0.0
 40
0.0
 40
0.0
 40
0.0
 40
1.0
 40
1.0
 40
1.0
 40
1.0
 10
-3.0176
 20
-25.3333
 30
0.0
 10
-3.0176
 20
-25.3333
 30
0.0
 10
1.6044
 20
-25.3333
 30
0.0
 10
1.6044
 20
-25.3333
 30
0.0
  0
SPLINE
  5
59
330
1F
100
AcDbEntity
  8
AXIS
 62
   250
100
AcDbSpline
210
0.0
220
0.0
230
1.0
 70
    24
 71
     3
 72
     8
 73
     4
 74
     0
 42
0.0000000001
 43
0.0000000001
 40
0.0
 40
0.0
 40
0.0
 40
0.0
 40
1.0
 40
1.0
 40
1.0
 40
1.0
 10
-9.1253
 20
-25.0031
 30
0.0
 10
-9.1253
 20
-25.0031
 30
0.0
 10
-4.5032
 20
-25.0031
 30
0.0
 10
-4.5032
 20
-25.0031
 30
0.0
  0
SPLINE
  5
5A
330
1F
100
AcDbEntity
  8
AXIS
 62
   250
100
AcDbSpline
210
0.0
220
0.0
230
1.0
 70
    24
 71
     3
 72
     8
 73
     4
 74
     0
 42
0.0000000001
 43
0.0000000001
 40
0.0
 40
0.0
 40
0.0
 40
0.0
 40
1.0
 40
1.0
 40
1.0
 40
1.0
 10
-3.0176
 20
-25.0031
 30
0.0
 10
-3.0176
 20
-25.0031
 30
0.0
 10
1.6044
 20
-25.0031
 30
0.0
 10
1.6044
 20
-25.0031
 30
0.0
  0
SPLINE
  5
5B
330
1F
100
AcDbEntity
  8
AXIS
 62
   250
100
AcDbSpline
210
0.0
220
0.0
230
1.0
 70
    24
 71
     3
 72
     8
 73
     4
 74
     0
 42
0.0000000001
 43
0.0000000001
 40
0.0
 40
0.0
 40
0.0
 40
0.0
 40
1.0
 40
1.0
 40
1.0
 40
1.0
 10
-1.0367
 20
-24.9839
 30
0.0
 10
-1.0367
 20
-24.9839
 30
0.0
 10
-3.0176
 20
-24.9839
 30
0.0
 10
-3.0176
 20
-24.9839
 30
0.0
  0
SPLINE
  5
5C
330
1F
100
AcDbEntity
  8
AXIS
 62
   250
100
AcDbSpline
210
0.0
220
0.0
230
1.0
 70
    24
 71
     3
 72
     8
 73
     4
 74
     0
 42
0.0000000001
 43
0.0000000001
 40
0.0
 40
0.0
 40
0.0
 40
0.0
 40
1.0
 40
1.0
 40
1.0
 40
1.0
 10
-4.5032
 20
-24.9839
 30
0.0
 10
-4.5032
 20
-24.9839
 30
0.0
 10
-6.4841
 20
-24.9839
 30
0.0
 10
-6.4841
 20
-24.9839
 30
0.0
  0
SPLINE
  5
5D
330
1F
100
AcDbEntity
  8
AXIS
 62
   250
100
AcDbSpline
210
0.0
220
0.0
230
1.0
 70
    24
 71
     3
 72
     8
 73
     4
 74
     0
 42
0.0000000001
 43
0.0000000001
 40
0.0
 40
0.0
 40
0.0
 40
0.0
 40
1.0
 40
1.0
 40
1.0
 40
1.0
 10
-1.1193
 20
-23.8768
 30
0.0
 10
-1.1193
 20
-23.8768
 30
0.0
 10
-3.0176
 20
-23.8768
 30
0.0
 10
-3.0176
 20
-23.8768
 30
0.0
  0
SPLINE
  5
5E
330
1F
100
AcDbEntity
  8
AXIS
 62
   250
100
AcDbSpline
210
0.0
220
0.0
230
1.0
 70
    24
 71
     3
 72
     8
 73
     4
 74
     0
 42
0.0000000001
 43
0.0000000001
 40
0.0
 40
0.0
 40
0.0
 40
0.0
 40
1.0
 40
1.0
 40
1.0
 40
1.0
 10
-4.5032
 20
-23.8768
 30
0.0
 10
-4.5032
 20
-23.8768
 30
0.0
 10
-6.4016
 20
-23.8768
 30
0.0
 10
-6.4016
 20
-23.8768
 30
0.0
  0
SPLINE
  5
5F
330
1F
100
AcDbEntity
  8
AXIS
 62
   250
100
AcDbSpline
210
0.0
220
0.0
230
1.0
 70
    24
 71
     3
 72
     8
 73
     4
 74
     0
 42
0.0000000001
 43
0.0000000001
 40
0.0
 40
0.0
 40
0.0
 40
0.0
 40
1.0
 40
1.0
 40
1.0
 40
1.0
 10
-6.4841
 20
-24.9839
 30
0.0
 10
-6.4841
 20
-24.9839
 30
0.0
 10
-8.2174
 20
-24.9536
 30
0.0
 10
-8.2174
 20
-24.9536
 30
0.0
  0
SPLINE
  5
60
330
1F
100
AcDbEntity
  8
AXIS
 62
   250
100
AcDbSpline
210
0.0
220
0.0
230
1.0
 70
    24
 71
     3
 72
     8
 73
     4
 74
     0
 42
0.0000000001
 43
0.0000000001
 40
0.0
 40
0.0
 40
0.0
 40
0.0
 40
1.0
 40
1.0
 40
1.0
 40
1.0
 10
-0.5509
 20
-24.5307
 30
0.0
 10
-0.5509
 20
-24.5307
 30
0.0
 10
0.6255
 20
-24.696
 30
0.0
 10
0.6255
 20
-24.696
 30
0.0
  0
SPLINE
  5
61
330
1F
100
AcDbEntity
  8
AXIS
 62
   250
100
AcDbSpline
210
0.0
220
0.0
230
1.0
 70
    24
 71
     3
 72
     8
 73
     4
 74
     0
 42
0.0000000001
 43
0.0000000001
 40
0.0
 40
0.0
 40
0.0
 40
0.0
 40
1.0
 40
1.0
 40
1.0
 40
1.0
 10
-6.4016
 20
-23.3689
 30
0.0
 10
-6.4016
 20
-23.3689
 30
0.0
 10
-6.7648
 20
-23.3689
 30
0.0
 10
-6.7648
 20
-23.3689
 30
0.0
  0
SPLINE
  5
62
330
1F
100
AcDbEntity
  8
AXIS
 62
   250
100
AcDbSpline
210
0.0
220
0.0
230
1.0
 70
    24
 71
     3
 72
     8
 73
     4
 74
     0
 42
0.0000000001
 43
0.0000000001
 40
0.0
 40
0.0
 40
0.0
 40
0.0
 40
1.0
 40
1.0
 40
1.0
 40
1.0
 10
-6.4016
 20
-22.7086
 30
0.0
 10
-6.4016
 20
-22.7086
 30
0.0
 10
-6.7648
 20
-22.7086
 30
0.0
 10
-6.7648
 20
-22.7086
 30
0.0
  0
SPLINE
  5
63
330
1F
100
AcDbEntity
  8
AXIS
 62
   250
100
AcDbSpline
210
0.0
220
0.0
230
1.0
 70
    24
 71
     3
 72
     8
 73
     4
 74
     0
 42
0.0000000001
 43
0.0000000001
 40
0.0
 40
0.0
 40
0.0
 40
0.0
 40
1.0
 40
1.0
 40
1.0
 40
1.0
 10
2.9663
 20
-21.8833
 30
0.0
 10
2.9663
 20
-21.8833
 30
0.0
 10
-3.0176
 20
-21.8833
 30
0.0
 10
-3.0176
 20
-21.8833
 30
0.0
  0
SPLINE
  5
64
330
1F
100
AcDbEntity
  8
AXIS
 62
   250
100
AcDbSpline
210
0.0
220
0.0
230
1.0
 70
    24
 71
     3
 72
     8
 73
     4
 74
     0
 42
0.0000000001
 43
0.0000000001
 40
0.0
 40
0.0
 40
0.0
 40
0.0
 40
1.0
 40
1.0
 40
1.0
 40
1.0
 10
-4.5032
 20
-21.8833
 30
0.0
 10
-4.5032
 20
-21.8833
 30
0.0
 10
-10.4872
 20
-21.8833
 30
0.0
 10
-10.4872
 20
-21.8833
 30
0.0
  0
SPLINE
  5
65
330
1F
100
AcDbEntity
  8
AXIS
 62
   250
100
AcDbSpline
210
0.0
220
0.0
230
1.0
 70
    24
 71
     3
 72
     8
 73
     4
 74
     0
 42
0.0000000001
 43
0.0000000001
 40
0.0
 40
0.0
 40
0.0
 40
0.0
 40
1.0
 40
1.0
 40
1.0
 40
1.0
 10
3.2453
 20
-21.5531
 30
0.0
 10
3.2453
 20
-21.5531
 30
0.0
 10
-10.7662
 20
-21.5531
 30
0.0
 10
-10.7662
 20
-21.5531
 30
0.0
  0
SPLINE
  5
66
330
1F
100
AcDbEntity
  8
AXIS
 62
   250
100
AcDbSpline
210
0.0
220
0.0
230
1.0
 70
    24
 71
     3
 72
     8
 73
     4
 74
     0
 42
0.0000000001
 43
0.0000000001
 40
0.0
 40
0.0
 40
0.0
 40
0.0
 40
1.0
 40
1.0
 40
1.0
 40
1.0
 10
-4.1318
 20
-20.9093
 30
0.0
 10
-4.1318
 20
-20.9093
 30
0.0
 10
-4.7591
 20
-20.9093
 30
0.0
 10
-4.7591
 20
-20.9093
 30
0.0
  0
SPLINE
  5
67
330
1F
100
AcDbEntity
  8
AXIS
 62
   250
100
AcDbSpline
210
0.0
220
0.0
230
1.0
 70
    24
 71
     3
 72
     8
 73
     4
 74
     0
 42
0.0000000001
 43
0.0000000001
 40
0.0
 40
0.0
 40
0.0
 40
0.0
 40
1.0
 40
1.0
 40
1.0
 40
1.0
 10
-3.7191
 20
-20.15
 30
0.0
 10
-3.7191
 20
-20.15
 30
0.0
 10
-4.7591
 20
-20.15
 30
0.0
 10
-4.7591
 20
-20.15
 30
0.0
  0
SPLINE
  5
68
330
1F
100
AcDbEntity
  8
AXIS
 62
   250
100
AcDbSpline
210
0.0
220
0.0
230
1.0
 70
    24
 71
     3
 72
     8
 73
     4
 74
     0
 42
0.0000000001
 43
0.0000000001
 40
0.0
 40
0.0
 40
0.0
 40
0.0
 40
1.0
 40
1.0
 40
1.0
 40
1.0
 10
3.2552
 20
-16.6009
 30
0.0
 10
3.2552
 20
-16.6009
 30
0.0
 10
-10.776
 20
-16.6009
 30
0.0
 10
-10.776
 20
-16.6009
 30
0.0
  0
SPLINE
  5
69
330
1F
100
AcDbEntity
  8
AXIS
 62
   250
100
AcDbSpline
210
0.0
220
0.0
230
1.0
 70
    24
 71
     3
 72
     8
 73
     4
 74
     0
 42
0.0000000001
 43
0.0000000001
 40
0.0
 40
0.0
 40
0.0
 40
0.0
 40
1.0
 40
1.0
 40
1.0
 40
1.0
 10
2.8425
 20
-16.1882
 30
0.0
 10
2.8425
 20
-16.1882
 30
0.0
 10
-10.3634
 20
-16.1882
 30
0.0
 10
-10.3634
 20
-16.1882
 30
0.0
  0
SPLINE
  5
6A
330
1F
100
AcDbEntity
  8
AXIS
 62
   250
100
AcDbSpline
210
0.0
220
0.0
230
1.0
 70
    24
 71
     3
 72
     8
 73
     4
 74
     0
 42
0.0000000001
 43
0.0000000001
 40
0.0
 40
0.0
 40
0.0
 40
0.0
 40
1.0
 40
1.0
 40
1.0
 40
1.0
 10
-10.7511
 20
-11.6487
 30
0.0
 10
-10.7511
 20
-11.6487
 30
0.0
 10
3.2302
 20
-11.6487
 30
0.0
 10
3.2302
 20
-11.6487
 30
0.0
  0
SPLINE
  5
6B
330
1F
100
AcDbEntity
  8
AXIS
 62
   250
100
AcDbSpline
210
0.0
220
0.0
230
1.0
 70
    24
 71
     3
 72
     8
 73
     4
 74
     0
 42
0.0000000001
 43
0.0000000001
 40
0.0
 40
0.0
 40
0.0
 40
0.0
 40
1.0
 40
1.0
 40
1.0
 40
1.0
 10
-10.776
 20
-16.6009
 30
0.0
 10
-10.776
 20
-16.6009
 30
0.0
 10
-10.776
 20
-20.15
 30
0.0
 10
-10.776
 20
-20.15
 30
0.0
  0
SPLINE
  5
6C
330
1F
100
AcDbEntity
  8
AXIS
 62
   250
100
AcDbSpline
210
0.0
220
0.0
230
1.0
 70
    24
 71
     3
 72
     8
 73
     4
 74
     0
 42
0.0000000001
 43
0.0000000001
 40
0.0
 40
0.0
 40
0.0
 40
0.0
 40
1.0
 40
1.0
 40
1.0
 40
1.0
 10
-10.7662
 20
-20.4801
 30
0.0
 10
-10.7662
 20
-20.4801
 30
0.0
 10
-10.7662
 20
-21.5531
 30
0.0
 10
-10.7662
 20
-21.5531
 30
0.0
  0
SPLINE
  5
6D
330
1F
100
AcDbEntity
  8
AXIS
 62
   250
100
AcDbSpline
210
0.0
220
0.0
230
1.0
 70
    24
 71
     3
 72
     8
 73
     4
 74
     0
 42
0.0000000001
 43
0.0000000001
 40
0.0
 40
0.0
 40
0.0
 40
0.0
 40
1.0
 40
1.0
 40
1.0
 40
1.0
 10
-10.4872
 20
-21.5531
 30
0.0
 10
-10.4872
 20
-21.5531
 30
0.0
 10
-10.4872
 20
-21.8833
 30
0.0
 10
-10.4872
 20
-21.8833
 30
0.0
  0
SPLINE
  5
6E
330
1F
100
AcDbEntity
  8
AXIS
 62
   250
100
AcDbSpline
210
0.0
220
0.0
230
1.0
 70
    24
 71
     3
 72
     8
 73
     4
 74
     0
 42
0.0000000001
 43
0.0000000001
 40
0.0
 40
0.0
 40
0.0
 40
0.0
 40
1.0
 40
1.0
 40
1.0
 40
1.0
 10
-10.4872
 20
-25.5149
 30
0.0
 10
-10.4872
 20
-25.5149
 30
0.0
 10
-10.4872
 20
-26.2577
 30
0.0
 10
-10.4872
 20
-26.2577
 30
0.0
  0
SPLINE
  5
6F
330
1F
100
AcDbEntity
  8
AXIS
 62
   250
100
AcDbSpline
210
0.0
220
0.0
230
1.0
 70
    24
 71
     3
 72
     8
 73
     4
 74
     0
 42
0.0000000001
 43
0.0000000001
 40
0.0
 40
0.0
 40
0.0
 40
0.0
 40
1.0
 40
1.0
 40
1.0
 40
1.0
 10
-10.3634
 20
-11.6487
 30
0.0
 10
-10.3634
 20
-11.6487
 30
0.0
 10
-10.3634
 20
-16.1882
 30
0.0
 10
-10.3634
 20
-16.1882
 30
0.0
  0
SPLINE
  5
70
330
1F
100
AcDbEntity
  8
AXIS
 62
   250
100
AcDbSpline
210
0.0
220
0.0
230
1.0
 70
    24
 71
     3
 72
     8
 73
     4
 74
     0
 42
0.0000000001
 43
0.0000000001
 40
0.0
 40
0.0
 40
0.0
 40
0.0
 40
1.0
 40
1.0
 40
1.0
 40
1.0
 10
-10.2313
 20
-25.5149
 30
0.0
 10
-10.2313
 20
-25.5149
 30
0.0
 10
-10.2313
 20
-21.8833
 30
0.0
 10
-10.2313
 20
-21.8833
 30
0.0
  0
SPLINE
  5
71
330
1F
100
AcDbEntity
  8
AXIS
 62
   250
100
AcDbSpline
210
0.0
220
0.0
230
1.0
 70
    24
 71
     3
 72
     8
 73
     4
 74
     0
 42
0.0000000001
 43
0.0000000001
 40
0.0
 40
0.0
 40
0.0
 40
0.0
 40
1.0
 40
1.0
 40
1.0
 40
1.0
 10
-5.2551
 20
24.3858
 30
0.0
 10
-5.2551
 20
24.3858
 30
0.0
 10
-6.4841
 20
19.9542
 30
0.0
 10
-6.4841
 20
19.9542
 30
0.0
  0
SPLINE
  5
72
330
1F
100
AcDbEntity
  8
AXIS
 62
   250
100
AcDbSpline
210
0.0
220
0.0
230
1.0
 70
    24
 71
     3
 72
     8
 73
     4
 74
     0
 42
0.0000000001
 43
0.0000000001
 40
0.0
 40
0.0
 40
0.0
 40
0.0
 40
1.0
 40
1.0
 40
1.0
 40
1.0
 10
-7.2048
 20
17.3554
 30
0.0
 10
-7.2048
 20
17.3554
 30
0.0
 10
-6.8143
 20
18.7637
 30
0.0
 10
-6.8143
 20
18.7637
 30
0.0
  0
SPLINE
  5
73
330
1F
100
AcDbEntity
  8
AXIS
 62
   250
100
AcDbSpline
210
0.0
220
0.0
230
1.0
 70
    24
 71
     3
 72
     8
 73
     4
 74
     0
 42
0.0000000001
 43
0.0000000001
 40
0.0
 40
0.0
 40
0.0
 40
0.0
 40
1.0
 40
1.0
 40
1.0
 40
1.0
 10
-6.4841
 20
18.8621
 30
0.0
 10
-6.4841
 20
18.8621
 30
0.0
 10
-4.9982
 20
24.2203
 30
0.0
 10
-4.9982
 20
24.2203
 30
0.0
  0
SPLINE
  5
74
330
1F
100
AcDbEntity
  8
AXIS
 62
   250
100
AcDbSpline
210
0.0
220
0.0
230
1.0
 70
    24
 71
     3
 72
     8
 73
     4
 74
     0
 42
0.0000000001
 43
0.0000000001
 40
0.0
 40
0.0
 40
0.0
 40
0.0
 40
1.0
 40
1.0
 40
1.0
 40
1.0
 10
-6.3993
 20
17.0284
 30
0.0
 10
-6.3993
 20
17.0284
 30
0.0
 10
-4.4471
 20
24.0675
 30
0.0
 10
-4.4471
 20
24.0675
 30
0.0
  0
SPLINE
  5
75
330
1F
100
AcDbEntity
  8
AXIS
 62
   250
100
AcDbSpline
210
0.0
220
0.0
230
1.0
 70
    24
 71
     3
 72
     8
 73
     4
 74
     0
 42
0.0000000001
 43
0.0000000001
 40
0.0
 40
0.0
 40
0.0
 40
0.0
 40
1.0
 40
1.0
 40
1.0
 40
1.0
 10
-6.2996
 20
16.2958
 30
0.0
 10
-6.2996
 20
16.2958
 30
0.0
 10
-4.9622
 20
21.1184
 30
0.0
 10
-4.9622
 20
21.1184
 30
0.0
  0
SPLINE
  5
76
330
1F
100
AcDbEntity
  8
AXIS
 62
   250
100
AcDbSpline
210
0.0
220
0.0
230
1.0
 70
    24
 71
     3
 72
     8
 73
     4
 74
     0
 42
0.0000000001
 43
0.0000000001
 40
0.0
 40
0.0
 40
0.0
 40
0.0
 40
1.0
 40
1.0
 40
1.0
 40
1.0
 10
2.8425
 20
-16.1882
 30
0.0
 10
2.8425
 20
-16.1882
 30
0.0
 10
3.2552
 20
-16.6009
 30
0.0
 10
3.2552
 20
-16.6009
 30
0.0
  0
SPLINE
  5
77
330
1F
100
AcDbEntity
  8
AXIS
 62
   250
100
AcDbSpline
210
0.0
220
0.0
230
1.0
 70
    24
 71
     3
 72
     8
 73
     4
 74
     0
 42
0.0000000001
 43
0.0000000001
 40
0.0
 40
0.0
 40
0.0
 40
0.0
 40
1.0
 40
1.0
 40
1.0
 40
1.0
 10
-9.7031
 20
-25.5149
 30
0.0
 10
-9.7031
 20
-25.5149
 30
0.0
 10
-9.7031
 20
-21.8833
 30
0.0
 10
-9.7031
 20
-21.8833
 30
0.0
  0
SPLINE
  5
78
330
1F
100
AcDbEntity
  8
AXIS
 62
   250
100
AcDbSpline
210
0.0
220
0.0
230
1.0
 70
    24
 71
     3
 72
     8
 73
     4
 74
     0
 42
0.0000000001
 43
0.0000000001
 40
0.0
 40
0.0
 40
0.0
 40
0.0
 40
1.0
 40
1.0
 40
1.0
 40
1.0
 10
-9.1253
 20
-25.3333
 30
0.0
 10
-9.1253
 20
-25.3333
 30
0.0
 10
-9.1253
 20
-25.0031
 30
0.0
 10
-9.1253
 20
-25.0031
 30
0.0
  0
SPLINE
  5
79
330
1F
100
AcDbEntity
  8
AXIS
 62
   250
100
AcDbSpline
210
0.0
220
0.0
230
1.0
 70
    24
 71
     3
 72
     8
 73
     4
 74
     0
 42
0.0000000001
 43
0.0000000001
 40
0.0
 40
0.0
 40
0.0
 40
0.0
 40
1.0
 40
1.0
 40
1.0
 40
1.0
 10
-8.2174
 20
-24.7778
 30
0.0
 10
-8.2174
 20
-24.7778
 30
0.0
 10
-8.2174
 20
-24.9536
 30
0.0
 10
-8.2174
 20
-24.9536
 30
0.0
  0
SPLINE
  5
7A
330
1F
100
AcDbEntity
  8
AXIS
 62
   250
100
AcDbSpline
210
0.0
220
0.0
230
1.0
 70
    24
 71
     3
 72
     8
 73
     4
 74
     0
 42
0.0000000001
 43
0.0000000001
 40
0.0
 40
0.0
 40
0.0
 40
0.0
 40
1.0
 40
1.0
 40
1.0
 40
1.0
 10
-6.8143
 20
19.9542
 30
0.0
 10
-6.8143
 20
19.9542
 30
0.0
 10
-6.8143
 20
13.8552
 30
0.0
 10
-6.8143
 20
13.8552
 30
0.0
  0
SPLINE
  5
7B
330
1F
100
AcDbEntity
  8
AXIS
 62
   250
100
AcDbSpline
210
0.0
220
0.0
230
1.0
 70
    24
 71
     3
 72
     8
 73
     4
 74
     0
 42
0.0000000001
 43
0.0000000001
 40
0.0
 40
0.0
 40
0.0
 40
0.0
 40
1.0
 40
1.0
 40
1.0
 40
1.0
 10
-6.8143
 20
-23.3194
 30
0.0
 10
-6.8143
 20
-23.3194
 30
0.0
 10
-6.8143
 20
-22.7581
 30
0.0
 10
-6.8143
 20
-22.7581
 30
0.0
  0
SPLINE
  5
7C
330
1F
100
AcDbEntity
  8
AXIS
 62
   250
100
AcDbSpline
210
0.0
220
0.0
230
1.0
 70
    24
 71
     3
 72
     8
 73
     4
 74
     0
 42
0.0000000001
 43
0.0000000001
 40
0.0
 40
0.0
 40
0.0
 40
0.0
 40
1.0
 40
1.0
 40
1.0
 40
1.0
 10
-6.4841
 20
19.9542
 30
0.0
 10
-6.4841
 20
19.9542
 30
0.0
 10
-6.4841
 20
13.8552
 30
0.0
 10
-6.4841
 20
13.8552
 30
0.0
  0
SPLINE
  5
7D
330
1F
100
AcDbEntity
  8
AXIS
 62
   250
100
AcDbSpline
210
0.0
220
0.0
230
1.0
 70
    24
 71
     3
 72
     8
 73
     4
 74
     0
 42
0.0000000001
 43
0.0000000001
 40
0.0
 40
0.0
 40
0.0
 40
0.0
 40
1.0
 40
1.0
 40
1.0
 40
1.0
 10
-6.4016
 20
-21.8833
 30
0.0
 10
-6.4016
 20
-21.8833
 30
0.0
 10
-6.4016
 20
-22.7086
 30
0.0
 10
-6.4016
 20
-22.7086
 30
0.0
  0
SPLINE
  5
7E
330
1F
100
AcDbEntity
  8
AXIS
 62
   250
100
AcDbSpline
210
0.0
220
0.0
230
1.0
 70
    24
 71
     3
 72
     8
 73
     4
 74
     0
 42
0.0000000001
 43
0.0000000001
 40
0.0
 40
0.0
 40
0.0
 40
0.0
 40
1.0
 40
1.0
 40
1.0
 40
1.0
 10
-6.4016
 20
-23.3689
 30
0.0
 10
-6.4016
 20
-23.3689
 30
0.0
 10
-6.4016
 20
-23.8768
 30
0.0
 10
-6.4016
 20
-23.8768
 30
0.0
  0
SPLINE
  5
7F
330
1F
100
AcDbEntity
  8
AXIS
 62
   250
100
AcDbSpline
210
0.0
220
0.0
230
1.0
 70
    24
 71
     3
 72
     8
 73
     4
 74
     0
 42
0.0000000001
 43
0.0000000001
 40
0.0
 40
0.0
 40
0.0
 40
0.0
 40
1.0
 40
1.0
 40
1.0
 40
1.0
 10
-5.081
 20
29.372
 30
0.0
 10
-5.081
 20
29.372
 30
0.0
 10
-5.2551
 20
24.3858
 30
0.0
 10
-5.2551
 20
24.3858
 30
0.0
  0
SPLINE
  5
80
330
1F
100
AcDbEntity
  8
AXIS
 62
   250
100
AcDbSpline
210
0.0
220
0.0
230
1.0
 70
    24
 71
     3
 72
     8
 73
     4
 74
     0
 42
0.0000000001
 43
0.0000000001
 40
0.0
 40
0.0
 40
0.0
 40
0.0
 40
1.0
 40
1.0
 40
1.0
 40
1.0
 10
-5.081
 20
32.9211
 30
0.0
 10
-5.081
 20
32.9211
 30
0.0
 10
-5.081
 20
29.372
 30
0.0
 10
-5.081
 20
29.372
 30
0.0
  0
SPLINE
  5
81
330
1F
100
AcDbEntity
  8
AXIS
 62
   250
100
AcDbSpline
210
0.0
220
0.0
230
1.0
 70
    24
 71
     3
 72
     8
 73
     4
 74
     0
 42
0.0000000001
 43
0.0000000001
 40
0.0
 40
0.0
 40
0.0
 40
0.0
 40
1.0
 40
1.0
 40
1.0
 40
1.0
 10
-4.5858
 20
32.3434
 30
0.0
 10
-4.5858
 20
32.3434
 30
0.0
 10
-4.5858
 20
30.8577
 30
0.0
 10
-4.5858
 20
30.8577
 30
0.0
  0
SPLINE
  5
82
330
1F
100
AcDbEntity
  8
AXIS
 62
   250
100
AcDbSpline
210
0.0
220
0.0
230
1.0
 70
    24
 71
     3
 72
     8
 73
     4
 74
     0
 42
0.0000000001
 43
0.0000000001
 40
0.0
 40
0.0
 40
0.0
 40
0.0
 40
1.0
 40
1.0
 40
1.0
 40
1.0
 10
-4.5032
 20
-21.8833
 30
0.0
 10
-4.5032
 20
-21.8833
 30
0.0
 10
-4.5032
 20
-25.5149
 30
0.0
 10
-4.5032
 20
-25.5149
 30
0.0
  0
SPLINE
  5
83
330
1F
100
AcDbEntity
  8
AXIS
 62
   250
100
AcDbSpline
210
0.0
220
0.0
230
1.0
 70
    24
 71
     3
 72
     8
 73
     4
 74
     0
 42
0.0000000001
 43
0.0000000001
 40
0.0
 40
0.0
 40
0.0
 40
0.0
 40
1.0
 40
1.0
 40
1.0
 40
1.0
 10
-4.1318
 20
-20.9093
 30
0.0
 10
-4.1318
 20
-20.9093
 30
0.0
 10
-4.1318
 20
-21.5531
 30
0.0
 10
-4.1318
 20
-21.5531
 30
0.0
  0
SPLINE
  5
84
330
1F
100
AcDbEntity
  8
AXIS
 62
   250
100
AcDbSpline
210
0.0
220
0.0
230
1.0
 70
    24
 71
     3
 72
     8
 73
     4
 74
     0
 42
0.0000000001
 43
0.0000000001
 40
0.0
 40
0.0
 40
0.0
 40
0.0
 40
1.0
 40
1.0
 40
1.0
 40
1.0
 10
-4.0463
 20
29.372
 30
0.0
 10
-4.0463
 20
29.372
 30
0.0
 10
-4.0463
 20
24.6717
 30
0.0
 10
-4.0463
 20
24.6717
 30
0.0
  0
SPLINE
  5
85
330
1F
100
AcDbEntity
  8
AXIS
 62
   250
100
AcDbSpline
210
0.0
220
0.0
230
1.0
 70
    24
 71
     3
 72
     8
 73
     4
 74
     0
 42
0.0000000001
 43
0.0000000001
 40
0.0
 40
0.0
 40
0.0
 40
0.0
 40
1.0
 40
1.0
 40
1.0
 40
1.0
 10
-3.4745
 20
29.372
 30
0.0
 10
-3.4745
 20
29.372
 30
0.0
 10
-3.4745
 20
24.6717
 30
0.0
 10
-3.4745
 20
24.6717
 30
0.0
  0
SPLINE
  5
86
330
1F
100
AcDbEntity
  8
AXIS
 62
   250
100
AcDbSpline
210
0.0
220
0.0
230
1.0
 70
    24
 71
     3
 72
     8
 73
     4
 74
     0
 42
0.0000000001
 43
0.0000000001
 40
0.0
 40
0.0
 40
0.0
 40
0.0
 40
1.0
 40
1.0
 40
1.0
 40
1.0
 10
-0.7066
 20
15.5059
 30
0.0
 10
-0.7066
 20
15.5059
 30
0.0
 10
-0.316
 20
16.9142
 30
0.0
 10
-0.316
 20
16.9142
 30
0.0
  0
SPLINE
  5
87
330
1F
100
AcDbEntity
  8
AXIS
 62
   250
100
AcDbSpline
210
0.0
220
0.0
230
1.0
 70
    24
 71
     3
 72
     8
 73
     4
 74
     0
 42
0.0000000001
 43
0.0000000001
 40
0.0
 40
0.0
 40
0.0
 40
0.0
 40
1.0
 40
1.0
 40
1.0
 40
1.0
 10
-2.2657
 20
24.3858
 30
0.0
 10
-2.2657
 20
24.3858
 30
0.0
 10
-2.4398
 20
29.372
 30
0.0
 10
-2.4398
 20
29.372
 30
0.0
  0
SPLINE
  5
88
330
1F
100
AcDbEntity
  8
AXIS
 62
   250
100
AcDbSpline
210
0.0
220
0.0
230
1.0
 70
    24
 71
     3
 72
     8
 73
     4
 74
     0
 42
0.0000000001
 43
0.0000000001
 40
0.0
 40
0.0
 40
0.0
 40
0.0
 40
1.0
 40
1.0
 40
1.0
 40
1.0
 10
-3.389
 20
-20.4801
 30
0.0
 10
-3.389
 20
-20.4801
 30
0.0
 10
-3.389
 20
-21.5531
 30
0.0
 10
-3.389
 20
-21.5531
 30
0.0
  0
SPLINE
  5
89
330
1F
100
AcDbEntity
  8
AXIS
 62
   250
100
AcDbSpline
210
0.0
220
0.0
230
1.0
 70
    24
 71
     3
 72
     8
 73
     4
 74
     0
 42
0.0000000001
 43
0.0000000001
 40
0.0
 40
0.0
 40
0.0
 40
0.0
 40
1.0
 40
1.0
 40
1.0
 40
1.0
 10
-3.0176
 20
-21.8833
 30
0.0
 10
-3.0176
 20
-21.8833
 30
0.0
 10
-3.0176
 20
-25.5149
 30
0.0
 10
-3.0176
 20
-25.5149
 30
0.0
  0
SPLINE
  5
8A
330
1F
100
AcDbEntity
  8
AXIS
 62
   250
100
AcDbSpline
210
0.0
220
0.0
230
1.0
 70
    24
 71
     3
 72
     8
 73
     4
 74
     0
 42
0.0000000001
 43
0.0000000001
 40
0.0
 40
0.0
 40
0.0
 40
0.0
 40
1.0
 40
1.0
 40
1.0
 40
1.0
 10
-2.935
 20
32.3434
 30
0.0
 10
-2.935
 20
32.3434
 30
0.0
 10
-2.935
 20
30.8577
 30
0.0
 10
-2.935
 20
30.8577
 30
0.0
  0
SPLINE
  5
8B
330
1F
100
AcDbEntity
  8
AXIS
 62
   250
100
AcDbSpline
210
0.0
220
0.0
230
1.0
 70
    24
 71
     3
 72
     8
 73
     4
 74
     0
 42
0.0000000001
 43
0.0000000001
 40
0.0
 40
0.0
 40
0.0
 40
0.0
 40
1.0
 40
1.0
 40
1.0
 40
1.0
 10
-2.4398
 20
29.372
 30
0.0
 10
-2.4398
 20
29.372
 30
0.0
 10
-2.4398
 20
32.9211
 30
0.0
 10
-2.4398
 20
32.9211
 30
0.0
  0
SPLINE
  5
8C
330
1F
100
AcDbEntity
  8
AXIS
 62
   250
100
AcDbSpline
210
0.0
220
0.0
230
1.0
 70
    24
 71
     3
 72
     8
 73
     4
 74
     0
 42
0.0000000001
 43
0.0000000001
 40
0.0
 40
0.0
 40
0.0
 40
0.0
 40
1.0
 40
1.0
 40
1.0
 40
1.0
 10
-6.8143
 20
15.5059
 30
0.0
 10
-6.8143
 20
15.5059
 30
0.0
 10
-7.2048
 20
16.9142
 30
0.0
 10
-7.2048
 20
16.9142
 30
0.0
  0
SPLINE
  5
8D
330
1F
100
AcDbEntity
  8
AXIS
 62
   250
100
AcDbSpline
210
0.0
220
0.0
230
1.0
 70
    24
 71
     3
 72
     8
 73
     4
 74
     0
 42
0.0000000001
 43
0.0000000001
 40
0.0
 40
0.0
 40
0.0
 40
0.0
 40
1.0
 40
1.0
 40
1.0
 40
1.0
 10
-1.1193
 20
-21.8833
 30
0.0
 10
-1.1193
 20
-21.8833
 30
0.0
 10
-1.1193
 20
-23.8768
 30
0.0
 10
-1.1193
 20
-23.8768
 30
0.0
  0
SPLINE
  5
8E
330
1F
100
AcDbEntity
  8
AXIS
 62
   250
100
AcDbSpline
210
0.0
220
0.0
230
1.0
 70
    24
 71
     3
 72
     8
 73
     4
 74
     0
 42
0.0000000001
 43
0.0000000001
 40
0.0
 40
0.0
 40
0.0
 40
0.0
 40
1.0
 40
1.0
 40
1.0
 40
1.0
 10
-1.0367
 20
19.9542
 30
0.0
 10
-1.0367
 20
19.9542
 30
0.0
 10
-1.0367
 20
13.8552
 30
0.0
 10
-1.0367
 20
13.8552
 30
0.0
  0
SPLINE
  5
8F
330
1F
100
AcDbEntity
  8
AXIS
 62
   250
100
AcDbSpline
210
0.0
220
0.0
230
1.0
 70
    24
 71
     3
 72
     8
 73
     4
 74
     0
 42
0.0000000001
 43
0.0000000001
 40
0.0
 40
0.0
 40
0.0
 40
0.0
 40
1.0
 40
1.0
 40
1.0
 40
1.0
 10
-0.7066
 20
19.9542
 30
0.0
 10
-0.7066
 20
19.9542
 30
0.0
 10
-0.7066
 20
13.8552
 30
0.0
 10
-0.7066
 20
13.8552
 30
0.0
  0
SPLINE
  5
90
330
1F
100
AcDbEntity
  8
AXIS
 62
   250
100
AcDbSpline
210
0.0
220
0.0
230
1.0
 70
    24
 71
     3
 72
     8
 73
     4
 74
     0
 42
0.0000000001
 43
0.0000000001
 40
0.0
 40
0.0
 40
0.0
 40
0.0
 40
1.0
 40
1.0
 40
1.0
 40
1.0
 10
0.6965
 20
-24.7778
 30
0.0
 10
0.6965
 20
-24.7778
 30
0.0
 10
0.6965
 20
-24.9536
 30
0.0
 10
0.6965
 20
-24.9536
 30
0.0
  0
SPLINE
  5
91
330
1F
100
AcDbEntity
  8
AXIS
 62
   250
100
AcDbSpline
210
0.0
220
0.0
230
1.0
 70
    24
 71
     3
 72
     8
 73
     4
 74
     0
 42
0.0000000001
 43
0.0000000001
 40
0.0
 40
0.0
 40
0.0
 40
0.0
 40
1.0
 40
1.0
 40
1.0
 40
1.0
 10
1.6044
 20
-25.3333
 30
0.0
 10
1.6044
 20
-25.3333
 30
0.0
 10
1.6044
 20
-25.0031
 30
0.0
 10
1.6044
 20
-25.0031
 30
0.0
  0
SPLINE
  5
92
330
1F
100
AcDbEntity
  8
AXIS
 62
   250
100
AcDbSpline
210
0.0
220
0.0
230
1.0
 70
    24
 71
     3
 72
     8
 73
     4
 74
     0
 42
0.0000000001
 43
0.0000000001
 40
0.0
 40
0.0
 40
0.0
 40
0.0
 40
1.0
 40
1.0
 40
1.0
 40
1.0
 10
2.1822
 20
-25.5149
 30
0.0
 10
2.1822
 20
-25.5149
 30
0.0
 10
2.1822
 20
-21.8833
 30
0.0
 10
2.1822
 20
-21.8833
 30
0.0
  0
SPLINE
  5
93
330
1F
100
AcDbEntity
  8
AXIS
 62
   250
100
AcDbSpline
210
0.0
220
0.0
230
1.0
 70
    24
 71
     3
 72
     8
 73
     4
 74
     0
 42
0.0000000001
 43
0.0000000001
 40
0.0
 40
0.0
 40
0.0
 40
0.0
 40
1.0
 40
1.0
 40
1.0
 40
1.0
 10
2.7104
 20
-25.5149
 30
0.0
 10
2.7104
 20
-25.5149
 30
0.0
 10
2.7104
 20
-21.8833
 30
0.0
 10
2.7104
 20
-21.8833
 30
0.0
  0
SPLINE
  5
94
330
1F
100
AcDbEntity
  8
AXIS
 62
   250
100
AcDbSpline
210
0.0
220
0.0
230
1.0
 70
    24
 71
     3
 72
     8
 73
     4
 74
     0
 42
0.0000000001
 43
0.0000000001
 40
0.0
 40
0.0
 40
0.0
 40
0.0
 40
1.0
 40
1.0
 40
1.0
 40
1.0
 10
2.8425
 20
-11.6487
 30
0.0
 10
2.8425
 20
-11.6487
 30
0.0
 10
2.8425
 20
-16.1882
 30
0.0
 10
2.8425
 20
-16.1882
 30
0.0
  0
SPLINE
  5
95
330
1F
100
AcDbEntity
  8
AXIS
 62
   250
100
AcDbSpline
210
0.0
220
0.0
230
1.0
 70
    24
 71
     3
 72
     8
 73
     4
 74
     0
 42
0.0000000001
 43
0.0000000001
 40
0.0
 40
0.0
 40
0.0
 40
0.0
 40
1.0
 40
1.0
 40
1.0
 40
1.0
 10
2.9663
 20
-21.5531
 30
0.0
 10
2.9663
 20
-21.5531
 30
0.0
 10
2.9663
 20
-21.8833
 30
0.0
 10
2.9663
 20
-21.8833
 30
0.0
  0
SPLINE
  5
96
330
1F
100
AcDbEntity
  8
AXIS
 62
   250
100
AcDbSpline
210
0.0
220
0.0
230
1.0
 70
    24
 71
     3
 72
     8
 73
     4
 74
     0
 42
0.0000000001
 43
0.0000000001
 40
0.0
 40
0.0
 40
0.0
 40
0.0
 40
1.0
 40
1.0
 40
1.0
 40
1.0
 10
2.9663
 20
-25.5149
 30
0.0
 10
2.9663
 20
-25.5149
 30
0.0
 10
2.9663
 20
-26.2577
 30
0.0
 10
2.9663
 20
-26.2577
 30
0.0
  0
SPLINE
  5
97
330
1F
100
AcDbEntity
  8
AXIS
 62
   250
100
AcDbSpline
210
0.0
220
0.0
230
1.0
 70
    24
 71
     3
 72
     8
 73
     4
 74
     0
 42
0.0000000001
 43
0.0000000001
 40
0.0
 40
0.0
 40
0.0
 40
0.0
 40
1.0
 40
1.0
 40
1.0
 40
1.0
 10
-2.5587
 20
21.1184
 30
0.0
 10
-2.5587
 20
21.1184
 30
0.0
 10
-1.2213
 20
16.2958
 30
0.0
 10
-1.2213
 20
16.2958
 30
0.0
  0
SPLINE
  5
98
330
1F
100
AcDbEntity
  8
AXIS
 62
   250
100
AcDbSpline
210
0.0
220
0.0
230
1.0
 70
    24
 71
     3
 72
     8
 73
     4
 74
     0
 42
0.0000000001
 43
0.0000000001
 40
0.0
 40
0.0
 40
0.0
 40
0.0
 40
1.0
 40
1.0
 40
1.0
 40
1.0
 10
-3.0737
 20
24.0675
 30
0.0
 10
-3.0737
 20
24.0675
 30
0.0
 10
-1.0969
 20
16.9393
 30
0.0
 10
-1.0969
 20
16.9393
 30
0.0
  0
SPLINE
  5
99
330
1F
100
AcDbEntity
  8
AXIS
 62
   250
100
AcDbSpline
210
0.0
220
0.0
230
1.0
 70
    24
 71
     3
 72
     8
 73
     4
 74
     0
 42
0.0000000001
 43
0.0000000001
 40
0.0
 40
0.0
 40
0.0
 40
0.0
 40
1.0
 40
1.0
 40
1.0
 40
1.0
 10
3.2552
 20
-16.6009
 30
0.0
 10
3.2552
 20
-16.6009
 30
0.0
 10
3.2552
 20
-21.5773
 30
0.0
 10
3.2552
 20
-21.5773
 30
0.0
  0
SPLINE
  5
9A
330
1F
100
AcDbEntity
  8
AXIS
 62
   250
100
AcDbSpline
210
0.0
220
0.0
230
1.0
 70
    24
 71
     3
 72
     8
 73
     4
 74
     0
 42
0.0000000001
 43
0.0000000001
 40
0.0
 40
0.0
 40
0.0
 40
0.0
 40
1.0
 40
1.0
 40
1.0
 40
1.0
 10
-10.3634
 20
-16.1882
 30
0.0
 10
-10.3634
 20
-16.1882
 30
0.0
 10
-10.776
 20
-16.6009
 30
0.0
 10
-10.776
 20
-16.6009
 30
0.0
  0
SPLINE
  5
9B
330
1F
100
AcDbEntity
  8
AXIS
 62
   250
100
AcDbSpline
210
0.0
220
0.0
230
1.0
 70
    24
 71
     3
 72
     8
 73
     4
 74
     0
 42
0.0000000001
 43
0.0000000001
 40
0.0
 40
0.0
 40
0.0
 40
0.0
 40
1.0
 40
1.0
 40
1.0
 40
1.0
 10
-2.5227
 20
24.2203
 30
0.0
 10
-2.5227
 20
24.2203
 30
0.0
 10
-1.0367
 20
18.8621
 30
0.0
 10
-1.0367
 20
18.8621
 30
0.0
  0
SPLINE
  5
9C
330
1F
100
AcDbEntity
  8
AXIS
 62
   250
100
AcDbSpline
210
0.0
220
0.0
230
1.0
 70
    24
 71
     3
 72
     8
 73
     4
 74
     0
 42
0.0000000001
 43
0.0000000001
 40
0.0
 40
0.0
 40
0.0
 40
0.0
 40
1.0
 40
1.0
 40
1.0
 40
1.0
 10
-0.316
 20
17.3554
 30
0.0
 10
-0.316
 20
17.3554
 30
0.0
 10
-0.7066
 20
18.7637
 30
0.0
 10
-0.7066
 20
18.7637
 30
0.0
  0
SPLINE
  5
9D
330
1F
100
AcDbEntity
  8
AXIS
 62
   250
100
AcDbSpline
210
0.0
220
0.0
230
1.0
 70
    24
 71
     3
 72
     8
 73
     4
 74
     0
 42
0.0000000001
 43
0.0000000001
 40
0.0
 40
0.0
 40
0.0
 40
0.0
 40
1.0
 40
1.0
 40
1.0
 40
1.0
 10
-1.0367
 20
19.9542
 30
0.0
 10
-1.0367
 20
19.9542
 30
0.0
 10
-2.2657
 20
24.3858
 30
0.0
 10
-2.2657
 20
24.3858
 30
0.0
  0
SPLINE
  5
9E
330
1F
100
AcDbEntity
  8
AXIS
 62
   250
100
AcDbSpline
210
0.0
220
0.0
230
1.0
 70
    24
 71
     3
 72
     8
 73
     4
 74
     0
 42
0.0000000001
 43
0.0000000001
 40
0.0
 40
0.0
 40
0.0
 40
0.0
 40
1.0
 40
1.0
 40
1.0
 40
1.0
 10
-6.8143
 20
13.8551
 30
0.0
 10
-6.8143
 20
13.8551
 30
0.0
 10
-6.4841
 20
13.8551
 30
0.0
 10
-6.4841
 20
13.8551
 30
0.0
  0
SPLINE
  5
9F
330
1F
100
AcDbEntity
  8
AXIS
 62
   250
100
AcDbSpline
210
0.0
220
0.0
230
1.0
 70
    24
 71
     3
 72
     8
 73
     4
 74
     0
 42
0.0000000001
 43
0.0000000001
 40
0.0
 40
0.0
 40
0.0
 40
0.0
 40
1.0
 40
1.0
 40
1.0
 40
1.0
 10
-1.0367
 20
13.8551
 30
0.0
 10
-1.0367
 20
13.8551
 30
0.0
 10
-0.7066
 20
13.8551
 30
0.0
 10
-0.7066
 20
13.8551
 30
0.0
  0
SPLINE
  5
A0
330
1F
100
AcDbEntity
  8
AXIS
 62
   250
100
AcDbSpline
210
0.0
220
0.0
230
1.0
 70
    24
 71
     3
 72
     8
 73
     4
 74
     0
 42
0.0000000001
 43
0.0000000001
 40
0.0
 40
0.0
 40
0.0
 40
0.0
 40
1.0
 40
1.0
 40
1.0
 40
1.0
 10
-6.3885
 20
15.5358
 30
0.0
 10
-6.3885
 20
15.5358
 30
0.0
 10
-1.1324
 20
15.5358
 30
0.0
 10
-1.1324
 20
15.5358
 30
0.0
  0
SPLINE
  5
A1
330
1F
100
AcDbEntity
  8
AXIS
 62
   250
100
AcDbSpline
210
0.0
220
0.0
230
1.0
 70
    24
 71
     3
 72
     8
 73
     4
 74
     0
 42
0.0000000001
 43
0.0000000001
 40
0.0
 40
0.0
 40
0.0
 40
0.0
 40
1.0
 40
1.0
 40
1.0
 40
1.0
 10
-6.4841
 20
19.9542
 30
0.0
 10
-6.4841
 20
19.9542
 30
0.0
 10
-6.8143
 20
19.9542
 30
0.0
 10
-6.8143
 20
19.9542
 30
0.0
  0
SPLINE
  5
A2
330
1F
100
AcDbEntity
  8
AXIS
 62
   250
100
AcDbSpline
210
0.0
220
0.0
230
1.0
 70
    24
 71
     3
 72
     8
 73
     4
 74
     0
 42
0.0000000001
 43
0.0000000001
 40
0.0
 40
0.0
 40
0.0
 40
0.0
 40
1.0
 40
1.0
 40
1.0
 40
1.0
 10
-1.0367
 20
19.9542
 30
0.0
 10
-1.0367
 20
19.9542
 30
0.0
 10
-0.7066
 20
19.9542
 30
0.0
 10
-0.7066
 20
19.9542
 30
0.0
  0
SPLINE
  5
A3
330
1F
100
AcDbEntity
  8
AXIS
 62
   250
100
AcDbSpline
210
0.0
220
0.0
230
1.0
 70
    24
 71
     3
 72
     8
 73
     4
 74
     0
 42
0.0000000001
 43
0.0000000001
 40
0.0
 40
0.0
 40
0.0
 40
0.0
 40
1.0
 40
1.0
 40
1.0
 40
1.0
 10
-4.9622
 20
21.1184
 30
0.0
 10
-4.9622
 20
21.1184
 30
0.0
 10
-2.5587
 20
21.1184
 30
0.0
 10
-2.5587
 20
21.1184
 30
0.0
  0
SPLINE
  5
A4
330
1F
100
AcDbEntity
  8
AXIS
 62
   250
100
AcDbSpline
210
0.0
220
0.0
230
1.0
 70
    24
 71
     3
 72
     8
 73
     4
 74
     0
 42
0.0000000001
 43
0.0000000001
 40
0.0
 40
0.0
 40
0.0
 40
0.0
 40
1.0
 40
1.0
 40
1.0
 40
1.0
 10
-4.4045
 20
24.0999
 30
0.0
 10
-4.4045
 20
24.0999
 30
0.0
 10
-3.1163
 20
24.0999
 30
0.0
 10
-3.1163
 20
24.0999
 30
0.0
  0
SPLINE
  5
A5
330
1F
100
AcDbEntity
  8
AXIS
 62
   250
100
AcDbSpline
210
0.0
220
0.0
230
1.0
 70
    24
 71
     3
 72
     8
 73
     4
 74
     0
 42
0.0000000001
 43
0.0000000001
 40
0.0
 40
0.0
 40
0.0
 40
0.0
 40
1.0
 40
1.0
 40
1.0
 40
1.0
 10
-4.4045
 20
24.6717
 30
0.0
 10
-4.4045
 20
24.6717
 30
0.0
 10
-4.0463
 20
24.6717
 30
0.0
 10
-4.0463
 20
24.6717
 30
0.0
  0
SPLINE
  5
A6
330
1F
100
AcDbEntity
  8
AXIS
 62
   250
100
AcDbSpline
210
0.0
220
0.0
230
1.0
 70
    24
 71
     3
 72
     8
 73
     4
 74
     0
 42
0.0000000001
 43
0.0000000001
 40
0.0
 40
0.0
 40
0.0
 40
0.0
 40
1.0
 40
1.0
 40
1.0
 40
1.0
 10
-3.4745
 20
24.6717
 30
0.0
 10
-3.4745
 20
24.6717
 30
0.0
 10
-3.1163
 20
24.6717
 30
0.0
 10
-3.1163
 20
24.6717
 30
0.0
  0
SPLINE
  5
A7
330
1F
100
AcDbEntity
  8
AXIS
 62
   250
100
AcDbSpline
210
0.0
220
0.0
230
1.0
 70
    24
 71
     3
 72
     8
 73
     4
 74
     0
 42
0.0000000001
 43
0.0000000001
 40
0.0
 40
0.0
 40
0.0
 40
0.0
 40
1.0
 40
1.0
 40
1.0
 40
1.0
 10
-4.8334
 20
29.372
 30
0.0
 10
-4.8334
 20
29.372
 30
0.0
 10
-4.0463
 20
29.372
 30
0.0
 10
-4.0463
 20
29.372
 30
0.0
  0
SPLINE
  5
A8
330
1F
100
AcDbEntity
  8
AXIS
 62
   250
100
AcDbSpline
210
0.0
220
0.0
230
1.0
 70
    24
 71
     3
 72
     8
 73
     4
 74
     0
 42
0.0000000001
 43
0.0000000001
 40
0.0
 40
0.0
 40
0.0
 40
0.0
 40
1.0
 40
1.0
 40
1.0
 40
1.0
 10
-3.4745
 20
29.372
 30
0.0
 10
-3.4745
 20
29.372
 30
0.0
 10
-2.6874
 20
29.372
 30
0.0
 10
-2.6874
 20
29.372
 30
0.0
  0
SPLINE
  5
A9
330
1F
100
AcDbEntity
  8
AXIS
 62
   250
100
AcDbSpline
210
0.0
220
0.0
230
1.0
 70
    24
 71
     3
 72
     8
 73
     4
 74
     0
 42
0.0000000001
 43
0.0000000001
 40
0.0
 40
0.0
 40
0.0
 40
0.0
 40
1.0
 40
1.0
 40
1.0
 40
1.0
 10
-2.935
 20
30.8577
 30
0.0
 10
-2.935
 20
30.8577
 30
0.0
 10
-4.5858
 20
30.8577
 30
0.0
 10
-4.5858
 20
30.8577
 30
0.0
  0
SPLINE
  5
AA
330
1F
100
AcDbEntity
  8
AXIS
 62
   250
100
AcDbSpline
210
0.0
220
0.0
230
1.0
 70
    24
 71
     3
 72
     8
 73
     4
 74
     0
 42
0.0000000001
 43
0.0000000001
 40
0.0
 40
0.0
 40
0.0
 40
0.0
 40
1.0
 40
1.0
 40
1.0
 40
1.0
 10
-4.5858
 20
32.3434
 30
0.0
 10
-4.5858
 20
32.3434
 30
0.0
 10
-2.935
 20
32.3434
 30
0.0
 10
-2.935
 20
32.3434
 30
0.0
  0
SPLINE
  5
AB
330
1F
100
AcDbEntity
  8
AXIS
 62
   250
100
AcDbSpline
210
0.0
220
0.0
230
1.0
 70
    24
 71
     3
 72
     8
 73
     4
 74
     0
 42
0.0000000001
 43
0.0000000001
 40
0.0
 40
0.0
 40
0.0
 40
0.0
 40
1.0
 40
1.0
 40
1.0
 40
1.0
 10
-2.6874
 20
33.1687
 30
0.0
 10
-2.6874
 20
33.1687
 30
0.0
 10
-4.8334
 20
33.1687
 30
0.0
 10
-4.8334
 20
33.1687
 30
0.0
  0
SPLINE
  5
AC
330
1F
100
AcDbEntity
  8
AXIS
 62
   250
100
AcDbSpline
210
0.0
220
0.0
230
1.0
 70
     8
 71
     3
 72
     8
 73
     4
 74
     0
 42
0.0000000001
 43
0.0000000001
 40
0.0
 40
0.0
 40
0.0
 40
0.0
 40
1.0
 40
1.0
 40
1.0
 40
1.0
 10
-5.081
 20
29.6197
 30
0.0
 10
-5.081
 20
29.4829
 30
0.0
 10
-4.9701
 20
29.372
 30
0.0
 10
-4.8334
 20
29.372
 30
0.0
  0
SPLINE
  5
AD
330
1F
100
AcDbEntity
  8
AXIS
 62
   250
100
AcDbSpline
210
0.0
220
0.0
230
1.0
 70
     8
 71
     3
 72
     8
 73
     4
 74
     0
 42
0.0000000001
 43
0.0000000001
 40
0.0
 40
0.0
 40
0.0
 40
0.0
 40
1.0
 40
1.0
 40
1.0
 40
1.0
 10
-4.8334
 20
33.1687
 30
0.0
 10
-4.9701
 20
33.1687
 30
0.0
 10
-5.081
 20
33.0579
 30
0.0
 10
-5.081
 20
32.9211
 30
0.0
  0
SPLINE
  5
AE
330
1F
100
AcDbEntity
  8
AXIS
 62
   250
100
AcDbSpline
210
0.0
220
0.0
230
1.0
 70
     8
 71
     3
 72
     8
 73
     4
 74
     0
 42
0.0000000001
 43
0.0000000001
 40
0.0
 40
0.0
 40
0.0
 40
0.0
 40
1.0
 40
1.0
 40
1.0
 40
1.0
 10
-2.4398
 20
32.9211
 30
0.0
 10
-2.4398
 20
33.0579
 30
0.0
 10
-2.5507
 20
33.1687
 30
0.0
 10
-2.6874
 20
33.1687
 30
0.0
  0
SPLINE
  5
AF
330
1F
100
AcDbEntity
  8
AXIS
 62
   250
100
AcDbSpline
210
0.0
220
0.0
230
1.0
 70
     8
 71
     3
 72
     8
 73
     4
 74
     0
 42
0.0000000001
 43
0.0000000001
 40
0.0
 40
0.0
 40
0.0
 40
0.0
 40
1.0
 40
1.0
 40
1.0
 40
1.0
 10
-2.6874
 20
29.372
 30
0.0
 10
-2.5507
 20
29.372
 30
0.0
 10
-2.4398
 20
29.4829
 30
0.0
 10
-2.4398
 20
29.6197
 30
0.0
  0
SPLINE
  5
B0
330
1F
100
AcDbEntity
  8
AXIS
 62
   250
100
AcDbSpline
210
0.0
220
0.0
230
1.0
 70
     8
 71
     3
 72
     8
 73
     4
 74
     0
 42
0.0000000001
 43
0.0000000001
 40
0.0
 40
0.0
 40
0.0
 40
0.0
 40
1.0
 40
1.0
 40
1.0
 40
1.0
 10
-0.316
 20
16.9142
 30
0.0
 10
-0.276
 20
17.0586
 30
0.0
 10
-0.276
 20
17.211
 30
0.0
 10
-0.316
 20
17.3554
 30
0.0
  0
SPLINE
  5
B1
330
1F
100
AcDbEntity
  8
AXIS
 62
   250
100
AcDbSpline
210
0.0
220
0.0
230
1.0
 70
     8
 71
     3
 72
     8
 73
     4
 74
     0
 42
0.0000000001
 43
0.0000000001
 40
0.0
 40
0.0
 40
0.0
 40
0.0
 40
1.0
 40
1.0
 40
1.0
 40
1.0
 10
-7.2048
 20
17.3554
 30
0.0
 10
-7.2449
 20
17.211
 30
0.0
 10
-7.2449
 20
17.0586
 30
0.0
 10
-7.2048
 20
16.9142
 30
0.0
  0
SPLINE
  5
B2
330
1F
100
AcDbEntity
  8
AXIS
 62
   250
100
AcDbSpline
210
0.0
220
0.0
230
1.0
 70
     8
 71
     3
 72
     8
 73
     4
 74
     0
 42
0.0000000001
 43
0.0000000001
 40
0.0
 40
0.0
 40
0.0
 40
0.0
 40
1.0
 40
1.0
 40
1.0
 40
1.0
 10
-2.5227
 20
24.2203
 30
0.0
 10
-2.5966
 20
24.4871
 30
0.0
 10
-2.8395
 20
24.6717
 30
0.0
 10
-3.1163
 20
24.6717
 30
0.0
  0
SPLINE
  5
B3
330
1F
100
AcDbEntity
  8
AXIS
 62
   250
100
AcDbSpline
210
0.0
220
0.0
230
1.0
 70
     8
 71
     3
 72
     8
 73
     4
 74
     0
 42
0.0000000001
 43
0.0000000001
 40
0.0
 40
0.0
 40
0.0
 40
0.0
 40
1.0
 40
1.0
 40
1.0
 40
1.0
 10
-4.4045
 20
24.0999
 30
0.0
 10
-4.4244
 20
24.0999
 30
0.0
 10
-4.4418
 20
24.0867
 30
0.0
 10
-4.4471
 20
24.0675
 30
0.0
  0
SPLINE
  5
B4
330
1F
100
AcDbEntity
  8
AXIS
 62
   250
100
AcDbSpline
210
0.0
220
0.0
230
1.0
 70
     8
 71
     3
 72
     8
 73
     4
 74
     0
 42
0.0000000001
 43
0.0000000001
 40
0.0
 40
0.0
 40
0.0
 40
0.0
 40
1.0
 40
1.0
 40
1.0
 40
1.0
 10
-3.0737
 20
24.0675
 30
0.0
 10
-3.079
 20
24.0867
 30
0.0
 10
-3.0964
 20
24.0999
 30
0.0
 10
-3.1163
 20
24.0999
 30
0.0
  0
SPLINE
  5
B5
330
1F
100
AcDbEntity
  8
AXIS
 62
   250
100
AcDbSpline
210
0.0
220
0.0
230
1.0
 70
     8
 71
     3
 72
     8
 73
     4
 74
     0
 42
0.0000000001
 43
0.0000000001
 40
0.0
 40
0.0
 40
0.0
 40
0.0
 40
1.0
 40
1.0
 40
1.0
 40
1.0
 10
-4.4045
 20
24.6717
 30
0.0
 10
-4.6814
 20
24.6717
 30
0.0
 10
-4.9242
 20
24.4871
 30
0.0
 10
-4.9982
 20
24.2203
 30
0.0
  0
SPLINE
  5
B6
330
1F
100
AcDbEntity
  8
AXIS
 62
   250
100
AcDbSpline
210
0.0
220
0.0
230
1.0
 70
     8
 71
     3
 72
     8
 73
     4
 74
     0
 42
0.0000000001
 43
0.0000000001
 40
0.0
 40
0.0
 40
0.0
 40
0.0
 40
1.0
 40
1.0
 40
1.0
 40
1.0
 10
1.3568
 20
-25.5149
 30
0.0
 10
1.3568
 20
-25.4449
 30
0.0
 10
1.3272
 20
-25.3783
 30
0.0
 10
1.2754
 20
-25.3313
 30
0.0
  0
SPLINE
  5
B7
330
1F
100
AcDbEntity
  8
AXIS
 62
   250
100
AcDbSpline
210
0.0
220
0.0
230
1.0
 70
     8
 71
     3
 72
     8
 73
     4
 74
     0
 42
0.0000000001
 43
0.0000000001
 40
0.0
 40
0.0
 40
0.0
 40
0.0
 40
1.0
 40
1.0
 40
1.0
 40
1.0
 10
-8.7963
 20
-25.3313
 30
0.0
 10
-8.8481
 20
-25.3783
 30
0.0
 10
-8.8777
 20
-25.4449
 30
0.0
 10
-8.8777
 20
-25.5149
 30
0.0
  0
SPLINE
  5
B8
330
1F
100
AcDbEntity
  8
AXIS
 62
   250
100
AcDbSpline
210
0.0
220
0.0
230
1.0
 70
    11
 71
     3
 72
    20
 73
    16
 74
     0
 42
0.0000000001
 43
0.0000000001
 40
0.0
 40
0.0
 40
0.0
 40
0.0
 40
0.2
 40
0.2
 40
0.2
 40
0.2
 40
0.4
 40
0.4
 40
0.4
 40
0.4
 40
0.6
 40
0.6
 40
0.6
 40
0.6
 40
1.0
 40
1.0
 40
1.0
 40
1.0
 10
-3.4303
 20
-20.5462
 30
0.0
 10
-3.4303
 20
-20.3638
 30
0.0
 10
-3.5781
 20
-20.216
 30
0.0
 10
-3.7604
 20
-20.216
 30
0.0
 10
-3.7604
 20
-20.216
 30
0.0
 10
-3.9428
 20
-20.216
 30
0.0
 10
-4.0906
 20
-20.3638
 30
0.0
 10
-4.0906
 20
-20.5462
 30
0.0
 10
-4.0906
 20
-20.5462
 30
0.0
 10
-4.0906
 20
-20.7285
 30
0.0
 10
-3.9428
 20
-20.8763
 30
0.0
 10
-3.7604
 20
-20.8763
 30
0.0
 10
-3.7604
 20
-20.8763
 30
0.0
 10
-3.5781
 20
-20.8763
 30
0.0
 10
-3.4303
 20
-20.7285
 30
0.0
 10
-3.4303
 20
-20.5462
 30
0.0
  0
SPLINE
  5
B9
330
1F
100
AcDbEntity
  8
AXIS
 62
   250
100
AcDbSpline
210
0.0
220
0.0
230
1.0
 70
     8
 71
     3
 72
    12
 73
     8
 74
     0
 42
0.0000000001
 43
0.0000000001
 40
0.0
 40
0.0
 40
0.0
 40
0.0
 40
0.3333333333333333
 40
0.3333333333333333
 40
0.3333333333333333
 40
0.3333333333333333
 40
1.0
 40
1.0
 40
1.0
 40
1.0
 10
-4.7591
 20
-20.15
 30
0.0
 10
-4.9688
 20
-20.15
 30
0.0
 10
-5.1388
 20
-20.32
 30
0.0
 10
-5.1388
 20
-20.5297
 30
0.0
 10
-5.1388
 20
-20.5297
 30
0.0
 10
-5.1388
 20
-20.7393
 30
0.0
 10
-4.9688
 20
-20.9093
 30
0.0
 10
-4.7591
 20
-20.9093
 30
0.0
  0
SPLINE
  5
BA
330
1F
100
AcDbEntity
  8
AXIS
 62
   250
100
AcDbSpline
210
0.0
220
0.0
230
1.0
 70
     8
 71
     3
 72
     8
 73
     4
 74
     0
 42
0.0000000001
 43
0.0000000001
 40
0.0
 40
0.0
 40
0.0
 40
0.0
 40
1.0
 40
1.0
 40
1.0
 40
1.0
 10
-3.389
 20
-20.4801
 30
0.0
 10
-3.389
 20
-20.2978
 30
0.0
 10
-3.5368
 20
-20.15
 30
0.0
 10
-3.7191
 20
-20.15
 30
0.0
  0
SPLINE
  5
BB
330
1F
100
AcDbEntity
  8
AXIS
 62
   250
100
AcDbSpline
210
0.0
220
0.0
230
1.0
 70
     8
 71
     3
 72
     8
 73
     4
 74
     0
 42
0.0000000001
 43
0.0000000001
 40
0.0
 40
0.0
 40
0.0
 40
0.0
 40
1.0
 40
1.0
 40
1.0
 40
1.0
 10
-1.1193
 20
-23.8768
 30
0.0
 10
-1.1193
 20
-24.206
 30
0.0
 10
-0.8768
 20
-24.4849
 30
0.0
 10
-0.5509
 20
-24.5307
 30
0.0
  0
SPLINE
  5
BC
330
1F
100
AcDbEntity
  8
AXIS
 62
   250
100
AcDbSpline
210
0.0
220
0.0
230
1.0
 70
     8
 71
     3
 72
     8
 73
     4
 74
     0
 42
0.0000000001
 43
0.0000000001
 40
0.0
 40
0.0
 40
0.0
 40
0.0
 40
1.0
 40
1.0
 40
1.0
 40
1.0
 10
-6.97
 20
-24.5307
 30
0.0
 10
-6.644
 20
-24.4849
 30
0.0
 10
-6.4016
 20
-24.206
 30
0.0
 10
-6.4016
 20
-23.8768
 30
0.0
  0
SPLINE
  5
BD
330
1F
100
AcDbEntity
  8
AXIS
 62
   250
100
AcDbSpline
210
0.0
220
0.0
230
1.0
 70
     8
 71
     3
 72
     8
 73
     4
 74
     0
 42
0.0000000001
 43
0.0000000001
 40
0.0
 40
0.0
 40
0.0
 40
0.0
 40
1.0
 40
1.0
 40
1.0
 40
1.0
 10
-6.8143
 20
-23.3194
 30
0.0
 10
-6.8143
 20
-23.3468
 30
0.0
 10
-6.7921
 20
-23.3689
 30
0.0
 10
-6.7648
 20
-23.3689
 30
0.0
  0
SPLINE
  5
BE
330
1F
100
AcDbEntity
  8
AXIS
 62
   250
100
AcDbSpline
210
0.0
220
0.0
230
1.0
 70
     8
 71
     3
 72
     8
 73
     4
 74
     0
 42
0.0000000001
 43
0.0000000001
 40
0.0
 40
0.0
 40
0.0
 40
0.0
 40
1.0
 40
1.0
 40
1.0
 40
1.0
 10
-6.7648
 20
-22.7086
 30
0.0
 10
-6.7921
 20
-22.7086
 30
0.0
 10
-6.8143
 20
-22.7308
 30
0.0
 10
-6.8143
 20
-22.7581
 30
0.0
  0
SPLINE
  5
BF
330
1F
100
AcDbEntity
  8
AXIS
 62
   250
100
AcDbSpline
210
0.0
220
0.0
230
1.0
 70
     8
 71
     3
 72
     8
 73
     4
 74
     0
 42
0.0000000001
 43
0.0000000001
 40
0.0
 40
0.0
 40
0.0
 40
0.0
 40
1.0
 40
1.0
 40
1.0
 40
1.0
 10
0.6965
 20
-24.7778
 30
0.0
 10
0.6965
 20
-24.7366
 30
0.0
 10
0.6662
 20
-24.7018
 30
0.0
 10
0.6255
 20
-24.696
 30
0.0
  0
SPLINE
  5
C0
330
1F
100
AcDbEntity
  8
AXIS
 62
   250
100
AcDbSpline
210
0.0
220
0.0
230
1.0
 70
     8
 71
     3
 72
     8
 73
     4
 74
     0
 42
0.0000000001
 43
0.0000000001
 40
0.0
 40
0.0
 40
0.0
 40
0.0
 40
1.0
 40
1.0
 40
1.0
 40
1.0
 10
-8.1464
 20
-24.696
 30
0.0
 10
-8.1871
 20
-24.7018
 30
0.0
 10
-8.2174
 20
-24.7366
 30
0.0
 10
-8.2174
 20
-24.7778
 30
0.0
  0
SPLINE
  5
C1
330
1F
100
AcDbEntity
  8
AXIS
 62
   250
100
AcDbSpline
210
0.0
220
0.0
230
1.0
 70
     8
 71
     3
 72
    40
 73
    36
 74
     0
 42
0.0000000001
 43
0.0000000001
 40
0.0
 40
0.0
 40
0.0
 40
0.0
 40
0.1
 40
0.1
 40
0.1
 40
0.1
 40
0.2
 40
0.2
 40
0.2
 40
0.2
 40
0.3
 40
0.3
 40
0.3
 40
0.3
 40
0.4
 40
0.4
 40
0.4
 40
0.4
 40
0.5
 40
0.5
 40
0.5
 40
0.5
 40
0.6
 40
0.6
 40
0.6
 40
0.6
 40
0.7
 40
0.7
 40
0.7
 40
0.7
 40
0.8
 40
0.8
 40
0.8
 40
0.8
 40
1.0
 40
1.0
 40
1.0
 40
1.0
 10
-4.0463
 20
29.372
 30
0.0
 10
-4.0463
 20
29.372
 30
0.0
 10
-4.0035
 20
29.379
 30
0.0
 10
-4.0035
 20
29.379
 30
0.0
 10
-4.0035
 20
29.379
 30
0.0
 10
-4.0035
 20
29.379
 30
0.0
 10
-3.9429
 20
29.3978
 30
0.0
 10
-3.9429
 20
29.3978
 30
0.0
 10
-3.9429
 20
29.3978
 30
0.0
 10
-3.9429
 20
29.3978
 30
0.0
 10
-3.8688
 20
29.4202
 30
0.0
 10
-3.8688
 20
29.4202
 30
0.0
 10
-3.8688
 20
29.4202
 30
0.0
 10
-3.8688
 20
29.4202
 30
0.0
 10
-3.7906
 20
29.4339
 30
0.0
 10
-3.7906
 20
29.4339
 30
0.0
 10
-3.7906
 20
29.4339
 30
0.0
 10
-3.7906
 20
29.4339
 30
0.0
 10
-3.7176
 20
29.4326
 30
0.0
 10
-3.7176
 20
29.4326
 30
0.0
 10
-3.7176
 20
29.4326
 30
0.0
 10
-3.7176
 20
29.4326
 30
0.0
 10
-3.6435
 20
29.418
 30
0.0
 10
-3.6435
 20
29.418
 30
0.0
 10
-3.6435
 20
29.418
 30
0.0
 10
-3.6435
 20
29.418
 30
0.0
 10
-3.5743
 20
29.3966
 30
0.0
 10
-3.5743
 20
29.3966
 30
0.0
 10
-3.5743
 20
29.3966
 30
0.0
 10
-3.5743
 20
29.3966
 30
0.0
 10
-3.5166
 20
29.3788
 30
0.0
 10
-3.5166
 20
29.3788
 30
0.0
 10
-3.5166
 20
29.3788
 30
0.0
 10
-3.5166
 20
29.3788
 30
0.0
 10
-3.4745
 20
29.372
 30
0.0
 10
-3.4745
 20
29.372
 30
0.0
  0
SPLINE
  5
C2
330
1F
100
AcDbEntity
  8
AXIS
 62
   250
100
AcDbSpline
210
0.0
220
0.0
230
1.0
 70
     8
 71
     3
 72
    24
 73
    20
 74
     0
 42
0.0000000001
 43
0.0000000001
 40
0.0
 40
0.0
 40
0.0
 40
0.0
 40
0.1666666666666667
 40
0.1666666666666667
 40
0.1666666666666667
 40
0.1666666666666667
 40
0.3333333333333333
 40
0.3333333333333333
 40
0.3333333333333333
 40
0.3333333333333333
 40
0.5
 40
0.5
 40
0.5
 40
0.5
 40
0.6666666666666666
 40
0.6666666666666666
 40
0.6666666666666666
 40
0.6666666666666666
 40
1.0
 40
1.0
 40
1.0
 40
1.0
 10
-4.0463
 20
24.6717
 30
0.0
 10
-4.0463
 20
24.6717
 30
0.0
 10
-4.0091
 20
24.6346
 30
0.0
 10
-4.0091
 20
24.6346
 30
0.0
 10
-4.0091
 20
24.6346
 30
0.0
 10
-4.0091
 20
24.6346
 30
0.0
 10
-3.9611
 20
24.5865
 30
0.0
 10
-3.9611
 20
24.5865
 30
0.0
 10
-3.9611
 20
24.5865
 30
0.0
 10
-3.9611
 20
24.5865
 30
0.0
 10
-3.903
 20
24.5285
 30
0.0
 10
-3.903
 20
24.5285
 30
0.0
 10
-3.903
 20
24.5285
 30
0.0
 10
-3.903
 20
24.5285
 30
0.0
 10
-3.836
 20
24.4614
 30
0.0
 10
-3.836
 20
24.4614
 30
0.0
 10
-3.836
 20
24.4614
 30
0.0
 10
-3.836
 20
24.4614
 30
0.0
 10
-3.7604
 20
24.3858
 30
0.0
 10
-3.7604
 20
24.3858
 30
0.0
  0
SPLINE
  5
C3
330
1F
100
AcDbEntity
  8
AXIS
 62
   250
100
AcDbSpline
210
0.0
220
0.0
230
1.0
 70
     8
 71
     3
 72
    24
 73
    20
 74
     0
 42
0.0000000001
 43
0.0000000001
 40
0.0
 40
0.0
 40
0.0
 40
0.0
 40
0.1666666666666667
 40
0.1666666666666667
 40
0.1666666666666667
 40
0.1666666666666667
 40
0.3333333333333333
 40
0.3333333333333333
 40
0.3333333333333333
 40
0.3333333333333333
 40
0.5
 40
0.5
 40
0.5
 40
0.5
 40
0.6666666666666666
 40
0.6666666666666666
 40
0.6666666666666666
 40
0.6666666666666666
 40
1.0
 40
1.0
 40
1.0
 40
1.0
 10
-3.7604
 20
24.3858
 30
0.0
 10
-3.7604
 20
24.3858
 30
0.0
 10
-3.6847
 20
24.4615
 30
0.0
 10
-3.6847
 20
24.4615
 30
0.0
 10
-3.6847
 20
24.4615
 30
0.0
 10
-3.6847
 20
24.4615
 30
0.0
 10
-3.6176
 20
24.5286
 30
0.0
 10
-3.6176
 20
24.5286
 30
0.0
 10
-3.6176
 20
24.5286
 30
0.0
 10
-3.6176
 20
24.5286
 30
0.0
 10
-3.5596
 20
24.5867
 30
0.0
 10
-3.5596
 20
24.5867
 30
0.0
 10
-3.5596
 20
24.5867
 30
0.0
 10
-3.5596
 20
24.5867
 30
0.0
 10
-3.5116
 20
24.6346
 30
0.0
 10
-3.5116
 20
24.6346
 30
0.0
 10
-3.5116
 20
24.6346
 30
0.0
 10
-3.5116
 20
24.6346
 30
0.0
 10
-3.4745
 20
24.6717
 30
0.0
 10
-3.4745
 20
24.6717
 30
0.0
  0
SPLINE
  5
C4
330
1F
100
AcDbEntity
  8
AXIS
 62
   250
100
AcDbSpline
210
0.0
220
0.0
230
1.0
 70
     8
 71
     3
 72
    36
 73
    32
 74
     0
 42
0.0000000001
 43
0.0000000001
 40
0.0
 40
0.0
 40
0.0
 40
0.0
 40
0.1111111111111111
 40
0.1111111111111111
 40
0.1111111111111111
 40
0.1111111111111111
 40
0.2222222222222222
 40
0.2222222222222222
 40
0.2222222222222222
 40
0.2222222222222222
 40
0.3333333333333333
 40
0.3333333333333333
 40
0.3333333333333333
 40
0.3333333333333333
 40
0.4444444444444444
 40
0.4444444444444444
 40
0.4444444444444444
 40
0.4444444444444444
 40
0.5555555555555556
 40
0.5555555555555556
 40
0.5555555555555556
 40
0.5555555555555556
 40
0.6666666666666666
 40
0.6666666666666666
 40
0.6666666666666666
 40
0.6666666666666666
 40
0.7777777777777778
 40
0.7777777777777778
 40
0.7777777777777778
 40
0.7777777777777778
 40
1.0
 40
1.0
 40
1.0
 40
1.0
 10
-10.7759
 20
-20.15
 30
0.0
 10
-10.7759
 20
-20.15
 30
0.0
 10
-10.7753
 20
-20.1563
 30
0.0
 10
-10.7753
 20
-20.1563
 30
0.0
 10
-10.7753
 20
-20.1563
 30
0.0
 10
-10.7753
 20
-20.1563
 30
0.0
 10
-10.774
 20
-20.1751
 30
0.0
 10
-10.774
 20
-20.1751
 30
0.0
 10
-10.774
 20
-20.1751
 30
0.0
 10
-10.774
 20
-20.1751
 30
0.0
 10
-10.7724
 20
-20.2056
 30
0.0
 10
-10.7724
 20
-20.2056
 30
0.0
 10
-10.7724
 20
-20.2056
 30
0.0
 10
-10.7724
 20
-20.2056
 30
0.0
 10
-10.7707
 20
-20.2467
 30
0.0
 10
-10.7707
 20
-20.2467
 30
0.0
 10
-10.7707
 20
-20.2467
 30
0.0
 10
-10.7707
 20
-20.2467
 30
0.0
 10
-10.7689
 20
-20.2967
 30
0.0
 10
-10.7689
 20
-20.2967
 30
0.0
 10
-10.7689
 20
-20.2967
 30
0.0
 10
-10.7689
 20
-20.2967
 30
0.0
 10
-10.7675
 20
-20.3538
 30
0.0
 10
-10.7675
 20
-20.3538
 30
0.0
 10
-10.7675
 20
-20.3538
 30
0.0
 10
-10.7675
 20
-20.3538
 30
0.0
 10
-10.7665
 20
-20.4157
 30
0.0
 10
-10.7665
 20
-20.4157
 30
0.0
 10
-10.7665
 20
-20.4157
 30
0.0
 10
-10.7665
 20
-20.4157
 30
0.0
 10
-10.7662
 20
-20.4801
 30
0.0
 10
-10.7662
 20
-20.4801
 30
0.0
  0
SPLINE
  5
C5
330
1F
100
AcDbEntity
  8
AXIS
 62
   250
100
AcDbSpline
210
0.0
220
0.0
230
1.0
 70
     8
 71
     3
 72
    40
 73
    36
 74
     0
 42
0.0000000001
 43
0.0000000001
 40
0.0
 40
0.0
 40
0.0
 40
0.0
 40
0.1
 40
0.1
 40
0.1
 40
0.1
 40
0.2
 40
0.2
 40
0.2
 40
0.2
 40
0.3
 40
0.3
 40
0.3
 40
0.3
 40
0.4
 40
0.4
 40
0.4
 40
0.4
 40
0.5
 40
0.5
 40
0.5
 40
0.5
 40
0.6
 40
0.6
 40
0.6
 40
0.6
 40
0.7
 40
0.7
 40
0.7
 40
0.7
 40
0.8
 40
0.8
 40
0.8
 40
0.8
 40
1.0
 40
1.0
 40
1.0
 40
1.0
 10
-6.4016
 20
-23.3689
 30
0.0
 10
-6.4016
 20
-23.3689
 30
0.0
 10
-6.3992
 20
-23.3494
 30
0.0
 10
-6.3992
 20
-23.3494
 30
0.0
 10
-6.3992
 20
-23.3494
 30
0.0
 10
-6.3992
 20
-23.3494
 30
0.0
 10
-6.3931
 20
-23.2925
 30
0.0
 10
-6.3931
 20
-23.2925
 30
0.0
 10
-6.3931
 20
-23.2925
 30
0.0
 10
-6.3931
 20
-23.2925
 30
0.0
 10
-6.3861
 20
-23.2046
 30
0.0
 10
-6.3861
 20
-23.2046
 30
0.0
 10
-6.3861
 20
-23.2046
 30
0.0
 10
-6.3861
 20
-23.2046
 30
0.0
 10
-6.3815
 20
-23.0971
 30
0.0
 10
-6.3815
 20
-23.0971
 30
0.0
 10
-6.3815
 20
-23.0971
 30
0.0
 10
-6.3815
 20
-23.0971
 30
0.0
 10
-6.3815
 20
-22.9821
 30
0.0
 10
-6.3815
 20
-22.9821
 30
0.0
 10
-6.3815
 20
-22.9821
 30
0.0
 10
-6.3815
 20
-22.9821
 30
0.0
 10
-6.386
 20
-22.8741
 30
0.0
 10
-6.386
 20
-22.8741
 30
0.0
 10
-6.386
 20
-22.8741
 30
0.0
 10
-6.386
 20
-22.8741
 30
0.0
 10
-6.393
 20
-22.7862
 30
0.0
 10
-6.393
 20
-22.7862
 30
0.0
 10
-6.393
 20
-22.7862
 30
0.0
 10
-6.393
 20
-22.7862
 30
0.0
 10
-6.3992
 20
-22.7284
 30
0.0
 10
-6.3992
 20
-22.7284
 30
0.0
 10
-6.3992
 20
-22.7284
 30
0.0
 10
-6.3992
 20
-22.7284
 30
0.0
 10
-6.4016
 20
-22.7086
 30
0.0
 10
-6.4016
 20
-22.7086
 30
0.0
  0
SPLINE
  5
C6
330
1F
100
AcDbEntity
  8
AXIS
  6
NEW_LINE2
 62
   250
100
AcDbSpline
210
0.0
220
0.0
230
1.0
 70
    24
 71
     3
 72
     8
 73
     4
 74
     0
 42
0.0000000001
 43
0.0000000001
 40
0.0
 40
0.0
 40
0.0
 40
0.0
 40
1.0
 40
1.0
 40
1.0
 40
1.0
 10
-2.8367
 20
-20.5464
 30
0.0
 10
-2.8367
 20
-20.5464
 30
0.0
 10
-5.6387
 20
-20.5464
 30
0.0
 10
-5.6387
 20
-20.5464
 30
0.0
  0
SPLINE
  5
C8
330
1F
100
AcDbEntity
  8
AXIS
 62
   250
100
AcDbSpline
210
0.0
220
0.0
230
1.0
 70
    24
 71
     3
 72
     8
 73
     4
 74
     0
 42
0.0000000001
 43
0.0000000001
 40
0.0
 40
0.0
 40
0.0
 40
0.0
 40
1.0
 40
1.0
 40
1.0
 40
1.0
 10
-3.8574
 20
-35.2885
 30
0.0
 10
-3.8574
 20
-35.2885
 30
0.0
 10
-3.6113
 20
-35.2885
 30
0.0
 10
-3.6113
 20
-35.2885
 30
0.0
  0
SPLINE
  5
C9
330
1F
100
AcDbEntity
  8
AXIS
 62
   250
100
AcDbSpline
210
0.0
220
0.0
230
1.0
 70
    24
 71
     3
 72
     8
 73
     4
 74
     0
 42
0.0000000001
 43
0.0000000001
 40
0.0
 40
0.0
 40
0.0
 40
0.0
 40
1.0
 40
1.0
 40
1.0
 40
1.0
 10
0.9806
 20
-31.6778
 30
0.0
 10
0.9806
 20
-31.6778
 30
0.0
 10
-3.554
 20
-31.6778
 30
0.0
 10
-3.554
 20
-31.6778
 30
0.0
  0
SPLINE
  5
CA
330
1F
100
AcDbEntity
  8
AXIS
 62
   250
100
AcDbSpline
210
0.0
220
0.0
230
1.0
 70
    24
 71
     3
 72
     8
 73
     4
 74
     0
 42
0.0000000001
 43
0.0000000001
 40
0.0
 40
0.0
 40
0.0
 40
0.0
 40
1.0
 40
1.0
 40
1.0
 40
1.0
 10
-3.9147
 20
-31.6778
 30
0.0
 10
-3.9147
 20
-31.6778
 30
0.0
 10
-8.4494
 20
-31.6778
 30
0.0
 10
-8.4494
 20
-31.6778
 30
0.0
  0
SPLINE
  5
CB
330
1F
100
AcDbEntity
  8
AXIS
 62
   250
100
AcDbSpline
210
0.0
220
0.0
230
1.0
 70
    24
 71
     3
 72
     8
 73
     4
 74
     0
 42
0.0000000001
 43
0.0000000001
 40
0.0
 40
0.0
 40
0.0
 40
0.0
 40
1.0
 40
1.0
 40
1.0
 40
1.0
 10
0.9513
 20
-30.101
 30
0.0
 10
0.9513
 20
-30.101
 30
0.0
 10
1.4222
 20
-30.018
 30
0.0
 10
1.4222
 20
-30.018
 30
0.0
  0
SPLINE
  5
CC
330
1F
100
AcDbEntity
  8
AXIS
 62
   250
100
AcDbSpline
210
0.0
220
0.0
230
1.0
 70
    24
 71
     3
 72
     8
 73
     4
 74
     0
 42
0.0000000001
 43
0.0000000001
 40
0.0
 40
0.0
 40
0.0
 40
0.0
 40
1.0
 40
1.0
 40
1.0
 40
1.0
 10
-8.4528
 20
-30.6931
 30
0.0
 10
-8.4528
 20
-30.6931
 30
0.0
 10
0.9841
 20
-30.6931
 30
0.0
 10
0.9841
 20
-30.6931
 30
0.0
  0
SPLINE
  5
CD
330
1F
100
AcDbEntity
  8
AXIS
 62
   250
100
AcDbSpline
210
0.0
220
0.0
230
1.0
 70
    24
 71
     3
 72
     8
 73
     4
 74
     0
 42
0.0000000001
 43
0.0000000001
 40
0.0
 40
0.0
 40
0.0
 40
0.0
 40
1.0
 40
1.0
 40
1.0
 40
1.0
 10
-8.42
 20
-30.6111
 30
0.0
 10
-8.42
 20
-30.6111
 30
0.0
 10
0.9513
 20
-30.6111
 30
0.0
 10
0.9513
 20
-30.6111
 30
0.0
  0
SPLINE
  5
CE
330
1F
100
AcDbEntity
  8
AXIS
 62
   250
100
AcDbSpline
210
0.0
220
0.0
230
1.0
 70
    24
 71
     3
 72
     8
 73
     4
 74
     0
 42
0.0000000001
 43
0.0000000001
 40
0.0
 40
0.0
 40
0.0
 40
0.0
 40
1.0
 40
1.0
 40
1.0
 40
1.0
 10
-8.42
 20
-30.101
 30
0.0
 10
-8.42
 20
-30.101
 30
0.0
 10
0.9513
 20
-30.101
 30
0.0
 10
0.9513
 20
-30.101
 30
0.0
  0
SPLINE
  5
CF
330
1F
100
AcDbEntity
  8
AXIS
 62
   250
100
AcDbSpline
210
0.0
220
0.0
230
1.0
 70
    24
 71
     3
 72
     8
 73
     4
 74
     0
 42
0.0000000001
 43
0.0000000001
 40
0.0
 40
0.0
 40
0.0
 40
0.0
 40
1.0
 40
1.0
 40
1.0
 40
1.0
 10
-8.42
 20
-29.889
 30
0.0
 10
-8.42
 20
-29.889
 30
0.0
 10
0.9513
 20
-29.889
 30
0.0
 10
0.9513
 20
-29.889
 30
0.0
  0
SPLINE
  5
D0
330
1F
100
AcDbEntity
  8
AXIS
 62
   250
100
AcDbSpline
210
0.0
220
0.0
230
1.0
 70
    24
 71
     3
 72
     8
 73
     4
 74
     0
 42
0.0000000001
 43
0.0000000001
 40
0.0
 40
0.0
 40
0.0
 40
0.0
 40
1.0
 40
1.0
 40
1.0
 40
1.0
 10
-8.42
 20
-29.3802
 30
0.0
 10
-8.42
 20
-29.3802
 30
0.0
 10
0.9513
 20
-29.3802
 30
0.0
 10
0.9513
 20
-29.3802
 30
0.0
  0
SPLINE
  5
D1
330
1F
100
AcDbEntity
  8
AXIS
 62
   250
100
AcDbSpline
210
0.0
220
0.0
230
1.0
 70
    24
 71
     3
 72
     8
 73
     4
 74
     0
 42
0.0000000001
 43
0.0000000001
 40
0.0
 40
0.0
 40
0.0
 40
0.0
 40
1.0
 40
1.0
 40
1.0
 40
1.0
 10
0.9841
 20
-29.2981
 30
0.0
 10
0.9841
 20
-29.2981
 30
0.0
 10
-8.4528
 20
-29.2981
 30
0.0
 10
-8.4528
 20
-29.2981
 30
0.0
  0
SPLINE
  5
D2
330
1F
100
AcDbEntity
  8
AXIS
 62
   250
100
AcDbSpline
210
0.0
220
0.0
230
1.0
 70
    24
 71
     3
 72
     8
 73
     4
 74
     0
 42
0.0000000001
 43
0.0000000001
 40
0.0
 40
0.0
 40
0.0
 40
0.0
 40
1.0
 40
1.0
 40
1.0
 40
1.0
 10
-8.42
 20
-30.101
 30
0.0
 10
-8.42
 20
-30.101
 30
0.0
 10
-8.8909
 20
-30.018
 30
0.0
 10
-8.8909
 20
-30.018
 30
0.0
  0
SPLINE
  5
D3
330
1F
100
AcDbEntity
  8
AXIS
 62
   250
100
AcDbSpline
210
0.0
220
0.0
230
1.0
 70
    24
 71
     3
 72
     8
 73
     4
 74
     0
 42
0.0000000001
 43
0.0000000001
 40
0.0
 40
0.0
 40
0.0
 40
0.0
 40
1.0
 40
1.0
 40
1.0
 40
1.0
 10
-8.8909
 20
-29.972
 30
0.0
 10
-8.8909
 20
-29.972
 30
0.0
 10
-8.42
 20
-29.889
 30
0.0
 10
-8.42
 20
-29.889
 30
0.0
  0
SPLINE
  5
D4
330
1F
100
AcDbEntity
  8
AXIS
 62
   250
100
AcDbSpline
210
0.0
220
0.0
230
1.0
 70
    24
 71
     3
 72
     8
 73
     4
 74
     0
 42
0.0000000001
 43
0.0000000001
 40
0.0
 40
0.0
 40
0.0
 40
0.0
 40
1.0
 40
1.0
 40
1.0
 40
1.0
 10
1.0251
 20
-27.7389
 30
0.0
 10
1.0251
 20
-27.7389
 30
0.0
 10
0.9812
 20
-27.7389
 30
0.0
 10
0.9812
 20
-27.7389
 30
0.0
  0
SPLINE
  5
D5
330
1F
100
AcDbEntity
  8
AXIS
 62
   250
100
AcDbSpline
210
0.0
220
0.0
230
1.0
 70
    24
 71
     3
 72
     8
 73
     4
 74
     0
 42
0.0000000001
 43
0.0000000001
 40
0.0
 40
0.0
 40
0.0
 40
0.0
 40
1.0
 40
1.0
 40
1.0
 40
1.0
 10
-3.5702
 20
-27.7389
 30
0.0
 10
-3.5702
 20
-27.7389
 30
0.0
 10
-3.8985
 20
-27.7389
 30
0.0
 10
-3.8985
 20
-27.7389
 30
0.0
  0
SPLINE
  5
D6
330
1F
100
AcDbEntity
  8
AXIS
 62
   250
100
AcDbSpline
210
0.0
220
0.0
230
1.0
 70
    24
 71
     3
 72
     8
 73
     4
 74
     0
 42
0.0000000001
 43
0.0000000001
 40
0.0
 40
0.0
 40
0.0
 40
0.0
 40
1.0
 40
1.0
 40
1.0
 40
1.0
 10
-8.45
 20
-27.7389
 30
0.0
 10
-8.45
 20
-27.7389
 30
0.0
 10
-8.4939
 20
-27.7389
 30
0.0
 10
-8.4939
 20
-27.7389
 30
0.0
  0
SPLINE
  5
D7
330
1F
100
AcDbEntity
  8
AXIS
 62
   250
100
AcDbSpline
210
0.0
220
0.0
230
1.0
 70
    24
 71
     3
 72
     8
 73
     4
 74
     0
 42
0.0000000001
 43
0.0000000001
 40
0.0
 40
0.0
 40
0.0
 40
0.0
 40
1.0
 40
1.0
 40
1.0
 40
1.0
 10
0.9812
 20
-26.7542
 30
0.0
 10
0.9812
 20
-26.7542
 30
0.0
 10
-3.5702
 20
-26.7542
 30
0.0
 10
-3.5702
 20
-26.7542
 30
0.0
  0
SPLINE
  5
D8
330
1F
100
AcDbEntity
  8
AXIS
 62
   250
100
AcDbSpline
210
0.0
220
0.0
230
1.0
 70
    24
 71
     3
 72
     8
 73
     4
 74
     0
 42
0.0000000001
 43
0.0000000001
 40
0.0
 40
0.0
 40
0.0
 40
0.0
 40
1.0
 40
1.0
 40
1.0
 40
1.0
 10
-3.8985
 20
-26.7542
 30
0.0
 10
-3.8985
 20
-26.7542
 30
0.0
 10
-8.45
 20
-26.7542
 30
0.0
 10
-8.45
 20
-26.7542
 30
0.0
  0
SPLINE
  5
D9
330
1F
100
AcDbEntity
  8
AXIS
 62
   250
100
AcDbSpline
210
0.0
220
0.0
230
1.0
 70
    24
 71
     3
 72
     8
 73
     4
 74
     0
 42
0.0000000001
 43
0.0000000001
 40
0.0
 40
0.0
 40
0.0
 40
0.0
 40
1.0
 40
1.0
 40
1.0
 40
1.0
 10
1.4222
 20
-29.972
 30
0.0
 10
1.4222
 20
-29.972
 30
0.0
 10
0.9513
 20
-29.889
 30
0.0
 10
0.9513
 20
-29.889
 30
0.0
  0
SPLINE
  5
DA
330
1F
100
AcDbEntity
  8
AXIS
 62
   250
100
AcDbSpline
210
0.0
220
0.0
230
1.0
 70
    24
 71
     3
 72
     8
 73
     4
 74
     0
 42
0.0000000001
 43
0.0000000001
 40
0.0
 40
0.0
 40
0.0
 40
0.0
 40
1.0
 40
1.0
 40
1.0
 40
1.0
 10
-8.937
 20
-27.2958
 30
0.0
 10
-8.937
 20
-27.2958
 30
0.0
 10
-8.4939
 20
-27.7389
 30
0.0
 10
-8.4939
 20
-27.7389
 30
0.0
  0
SPLINE
  5
DB
330
1F
100
AcDbEntity
  8
AXIS
 62
   250
100
AcDbSpline
210
0.0
220
0.0
230
1.0
 70
    24
 71
     3
 72
     8
 73
     4
 74
     0
 42
0.0000000001
 43
0.0000000001
 40
0.0
 40
0.0
 40
0.0
 40
0.0
 40
1.0
 40
1.0
 40
1.0
 40
1.0
 10
-8.4528
 20
-27.7389
 30
0.0
 10
-8.4528
 20
-27.7389
 30
0.0
 10
-8.4528
 20
-29.2981
 30
0.0
 10
-8.4528
 20
-29.2981
 30
0.0
  0
SPLINE
  5
DC
330
1F
100
AcDbEntity
  8
AXIS
 62
   250
100
AcDbSpline
210
0.0
220
0.0
230
1.0
 70
    24
 71
     3
 72
     8
 73
     4
 74
     0
 42
0.0000000001
 43
0.0000000001
 40
0.0
 40
0.0
 40
0.0
 40
0.0
 40
1.0
 40
1.0
 40
1.0
 40
1.0
 10
-8.45
 20
-26.7542
 30
0.0
 10
-8.45
 20
-26.7542
 30
0.0
 10
-8.45
 20
-27.7389
 30
0.0
 10
-8.45
 20
-27.7389
 30
0.0
  0
SPLINE
  5
DD
330
1F
100
AcDbEntity
  8
AXIS
 62
   250
100
AcDbSpline
210
0.0
220
0.0
230
1.0
 70
    24
 71
     3
 72
     8
 73
     4
 74
     0
 42
0.0000000001
 43
0.0000000001
 40
0.0
 40
0.0
 40
0.0
 40
0.0
 40
1.0
 40
1.0
 40
1.0
 40
1.0
 10
-8.42
 20
-30.6111
 30
0.0
 10
-8.42
 20
-30.6111
 30
0.0
 10
-8.42
 20
-30.101
 30
0.0
 10
-8.42
 20
-30.101
 30
0.0
  0
SPLINE
  5
DE
330
1F
100
AcDbEntity
  8
AXIS
 62
   250
100
AcDbSpline
210
0.0
220
0.0
230
1.0
 70
    24
 71
     3
 72
     8
 73
     4
 74
     0
 42
0.0000000001
 43
0.0000000001
 40
0.0
 40
0.0
 40
0.0
 40
0.0
 40
1.0
 40
1.0
 40
1.0
 40
1.0
 10
-8.42
 20
-29.889
 30
0.0
 10
-8.42
 20
-29.889
 30
0.0
 10
-8.42
 20
-29.3802
 30
0.0
 10
-8.42
 20
-29.3802
 30
0.0
  0
SPLINE
  5
DF
330
1F
100
AcDbEntity
  8
AXIS
 62
   250
100
AcDbSpline
210
0.0
220
0.0
230
1.0
 70
    24
 71
     3
 72
     8
 73
     4
 74
     0
 42
0.0000000001
 43
0.0000000001
 40
0.0
 40
0.0
 40
0.0
 40
0.0
 40
1.0
 40
1.0
 40
1.0
 40
1.0
 10
-8.2066
 20
-29.3802
 30
0.0
 10
-8.2066
 20
-29.3802
 30
0.0
 10
-8.2066
 20
-29.2981
 30
0.0
 10
-8.2066
 20
-29.2981
 30
0.0
  0
SPLINE
  5
E0
330
1F
100
AcDbEntity
  8
AXIS
 62
   250
100
AcDbSpline
210
0.0
220
0.0
230
1.0
 70
    24
 71
     3
 72
     8
 73
     4
 74
     0
 42
0.0000000001
 43
0.0000000001
 40
0.0
 40
0.0
 40
0.0
 40
0.0
 40
1.0
 40
1.0
 40
1.0
 40
1.0
 10
-3.9151
 20
-31.6581
 30
0.0
 10
-3.9151
 20
-31.6581
 30
0.0
 10
-3.8574
 20
-34.9603
 30
0.0
 10
-3.8574
 20
-34.9603
 30
0.0
  0
SPLINE
  5
E1
330
1F
100
AcDbEntity
  8
AXIS
 62
   250
100
AcDbSpline
210
0.0
220
0.0
230
1.0
 70
    24
 71
     3
 72
     8
 73
     4
 74
     0
 42
0.0000000001
 43
0.0000000001
 40
0.0
 40
0.0
 40
0.0
 40
0.0
 40
1.0
 40
1.0
 40
1.0
 40
1.0
 10
-3.8985
 20
-27.7389
 30
0.0
 10
-3.8985
 20
-27.7389
 30
0.0
 10
-3.8985
 20
-27.2958
 30
0.0
 10
-3.8985
 20
-27.2958
 30
0.0
  0
SPLINE
  5
E2
330
1F
100
AcDbEntity
  8
AXIS
 62
   250
100
AcDbSpline
210
0.0
220
0.0
230
1.0
 70
    24
 71
     3
 72
     8
 73
     4
 74
     0
 42
0.0000000001
 43
0.0000000001
 40
0.0
 40
0.0
 40
0.0
 40
0.0
 40
1.0
 40
1.0
 40
1.0
 40
1.0
 10
-3.8574
 20
-34.9603
 30
0.0
 10
-3.8574
 20
-34.9603
 30
0.0
 10
-3.8574
 20
-35.2885
 30
0.0
 10
-3.8574
 20
-35.2885
 30
0.0
  0
SPLINE
  5
E3
330
1F
100
AcDbEntity
  8
AXIS
 62
   250
100
AcDbSpline
210
0.0
220
0.0
230
1.0
 70
    24
 71
     3
 72
     8
 73
     4
 74
     0
 42
0.0000000001
 43
0.0000000001
 40
0.0
 40
0.0
 40
0.0
 40
0.0
 40
1.0
 40
1.0
 40
1.0
 40
1.0
 10
-3.6113
 20
-34.9603
 30
0.0
 10
-3.6113
 20
-34.9603
 30
0.0
 10
-3.6113
 20
-35.2885
 30
0.0
 10
-3.6113
 20
-35.2885
 30
0.0
  0
SPLINE
  5
E4
330
1F
100
AcDbEntity
  8
AXIS
 62
   250
100
AcDbSpline
210
0.0
220
0.0
230
1.0
 70
    24
 71
     3
 72
     8
 73
     4
 74
     0
 42
0.0000000001
 43
0.0000000001
 40
0.0
 40
0.0
 40
0.0
 40
0.0
 40
1.0
 40
1.0
 40
1.0
 40
1.0
 10
-3.5702
 20
-27.2958
 30
0.0
 10
-3.5702
 20
-27.2958
 30
0.0
 10
-3.5702
 20
-27.7389
 30
0.0
 10
-3.5702
 20
-27.7389
 30
0.0
  0
SPLINE
  5
E5
330
1F
100
AcDbEntity
  8
AXIS
 62
   250
100
AcDbSpline
210
0.0
220
0.0
230
1.0
 70
    24
 71
     3
 72
     8
 73
     4
 74
     0
 42
0.0000000001
 43
0.0000000001
 40
0.0
 40
0.0
 40
0.0
 40
0.0
 40
1.0
 40
1.0
 40
1.0
 40
1.0
 10
-3.5536
 20
-31.6581
 30
0.0
 10
-3.5536
 20
-31.6581
 30
0.0
 10
-3.6113
 20
-34.9603
 30
0.0
 10
-3.6113
 20
-34.9603
 30
0.0
  0
SPLINE
  5
E6
330
1F
100
AcDbEntity
  8
AXIS
 62
   250
100
AcDbSpline
210
0.0
220
0.0
230
1.0
 70
    24
 71
     3
 72
     8
 73
     4
 74
     0
 42
0.0000000001
 43
0.0000000001
 40
0.0
 40
0.0
 40
0.0
 40
0.0
 40
1.0
 40
1.0
 40
1.0
 40
1.0
 10
0.7379
 20
-30.6931
 30
0.0
 10
0.7379
 20
-30.6931
 30
0.0
 10
0.7379
 20
-30.6111
 30
0.0
 10
0.7379
 20
-30.6111
 30
0.0
  0
SPLINE
  5
E7
330
1F
100
AcDbEntity
  8
AXIS
 62
   250
100
AcDbSpline
210
0.0
220
0.0
230
1.0
 70
    24
 71
     3
 72
     8
 73
     4
 74
     0
 42
0.0000000001
 43
0.0000000001
 40
0.0
 40
0.0
 40
0.0
 40
0.0
 40
1.0
 40
1.0
 40
1.0
 40
1.0
 10
0.7379
 20
-29.3802
 30
0.0
 10
0.7379
 20
-29.3802
 30
0.0
 10
0.7379
 20
-29.2981
 30
0.0
 10
0.7379
 20
-29.2981
 30
0.0
  0
SPLINE
  5
E8
330
1F
100
AcDbEntity
  8
AXIS
 62
   250
100
AcDbSpline
210
0.0
220
0.0
230
1.0
 70
    24
 71
     3
 72
     8
 73
     4
 74
     0
 42
0.0000000001
 43
0.0000000001
 40
0.0
 40
0.0
 40
0.0
 40
0.0
 40
1.0
 40
1.0
 40
1.0
 40
1.0
 10
0.9513
 20
-30.6111
 30
0.0
 10
0.9513
 20
-30.6111
 30
0.0
 10
0.9513
 20
-30.101
 30
0.0
 10
0.9513
 20
-30.101
 30
0.0
  0
SPLINE
  5
E9
330
1F
100
AcDbEntity
  8
AXIS
 62
   250
100
AcDbSpline
210
0.0
220
0.0
230
1.0
 70
    24
 71
     3
 72
     8
 73
     4
 74
     0
 42
0.0000000001
 43
0.0000000001
 40
0.0
 40
0.0
 40
0.0
 40
0.0
 40
1.0
 40
1.0
 40
1.0
 40
1.0
 10
0.9513
 20
-29.889
 30
0.0
 10
0.9513
 20
-29.889
 30
0.0
 10
0.9513
 20
-29.3802
 30
0.0
 10
0.9513
 20
-29.3802
 30
0.0
  0
SPLINE
  5
EA
330
1F
100
AcDbEntity
  8
AXIS
 62
   250
100
AcDbSpline
210
0.0
220
0.0
230
1.0
 70
    24
 71
     3
 72
     8
 73
     4
 74
     0
 42
0.0000000001
 43
0.0000000001
 40
0.0
 40
0.0
 40
0.0
 40
0.0
 40
1.0
 40
1.0
 40
1.0
 40
1.0
 10
0.9812
 20
-26.7542
 30
0.0
 10
0.9812
 20
-26.7542
 30
0.0
 10
0.9812
 20
-27.7389
 30
0.0
 10
0.9812
 20
-27.7389
 30
0.0
  0
SPLINE
  5
EB
330
1F
100
AcDbEntity
  8
AXIS
 62
   250
100
AcDbSpline
210
0.0
220
0.0
230
1.0
 70
    24
 71
     3
 72
     8
 73
     4
 74
     0
 42
0.0000000001
 43
0.0000000001
 40
0.0
 40
0.0
 40
0.0
 40
0.0
 40
1.0
 40
1.0
 40
1.0
 40
1.0
 10
0.9841
 20
-27.7389
 30
0.0
 10
0.9841
 20
-27.7389
 30
0.0
 10
0.9841
 20
-29.2981
 30
0.0
 10
0.9841
 20
-29.2981
 30
0.0
  0
SPLINE
  5
EC
330
1F
100
AcDbEntity
  8
AXIS
 62
   250
100
AcDbSpline
210
0.0
220
0.0
230
1.0
 70
    24
 71
     3
 72
     8
 73
     4
 74
     0
 42
0.0000000001
 43
0.0000000001
 40
0.0
 40
0.0
 40
0.0
 40
0.0
 40
1.0
 40
1.0
 40
1.0
 40
1.0
 10
0.9841
 20
-30.6931
 30
0.0
 10
0.9841
 20
-30.6931
 30
0.0
 10
0.9841
 20
-31.1855
 30
0.0
 10
0.9841
 20
-31.1855
 30
0.0
  0
SPLINE
  5
ED
330
1F
100
AcDbEntity
  8
AXIS
 62
   250
100
AcDbSpline
210
0.0
220
0.0
230
1.0
 70
    24
 71
     3
 72
     8
 73
     4
 74
     0
 42
0.0000000001
 43
0.0000000001
 40
0.0
 40
0.0
 40
0.0
 40
0.0
 40
1.0
 40
1.0
 40
1.0
 40
1.0
 10
1.0251
 20
-27.7389
 30
0.0
 10
1.0251
 20
-27.7389
 30
0.0
 10
1.4682
 20
-27.2958
 30
0.0
 10
1.4682
 20
-27.2958
 30
0.0
  0
SPLINE
  5
EE
330
1F
100
AcDbEntity
  8
AXIS
 62
   250
100
AcDbSpline
210
0.0
220
0.0
230
1.0
 70
     8
 71
     3
 72
     8
 73
     4
 74
     0
 42
0.0000000001
 43
0.0000000001
 40
0.0
 40
0.0
 40
0.0
 40
0.0
 40
1.0
 40
1.0
 40
1.0
 40
1.0
 10
-8.9303
 20
-29.995
 30
0.0
 10
-8.9203
 20
-30.0071
 30
0.0
 10
-8.9064
 20
-30.0152
 30
0.0
 10
-8.8909
 20
-30.018
 30
0.0
  0
SPLINE
  5
EF
330
1F
100
AcDbEntity
  8
AXIS
 62
   250
100
AcDbSpline
210
0.0
220
0.0
230
1.0
 70
     8
 71
     3
 72
     8
 73
     4
 74
     0
 42
0.0000000001
 43
0.0000000001
 40
0.0
 40
0.0
 40
0.0
 40
0.0
 40
1.0
 40
1.0
 40
1.0
 40
1.0
 10
-8.8909
 20
-29.972
 30
0.0
 10
-8.9064
 20
-29.9747
 30
0.0
 10
-8.9203
 20
-29.9829
 30
0.0
 10
-8.9303
 20
-29.995
 30
0.0
  0
SPLINE
  5
F0
330
1F
100
AcDbEntity
  8
AXIS
 62
   250
100
AcDbSpline
210
0.0
220
0.0
230
1.0
 70
     8
 71
     3
 72
     8
 73
     4
 74
     0
 42
0.0000000001
 43
0.0000000001
 40
0.0
 40
0.0
 40
0.0
 40
0.0
 40
1.0
 40
1.0
 40
1.0
 40
1.0
 10
1.4222
 20
-30.018
 30
0.0
 10
1.4376
 20
-30.0152
 30
0.0
 10
1.4516
 20
-30.0071
 30
0.0
 10
1.4615
 20
-29.995
 30
0.0
  0
SPLINE
  5
F1
330
1F
100
AcDbEntity
  8
AXIS
 62
   250
100
AcDbSpline
210
0.0
220
0.0
230
1.0
 70
     8
 71
     3
 72
     8
 73
     4
 74
     0
 42
0.0000000001
 43
0.0000000001
 40
0.0
 40
0.0
 40
0.0
 40
0.0
 40
1.0
 40
1.0
 40
1.0
 40
1.0
 10
1.4615
 20
-29.995
 30
0.0
 10
1.4516
 20
-29.9829
 30
0.0
 10
1.4376
 20
-29.9747
 30
0.0
 10
1.4222
 20
-29.972
 30
0.0
  0
SPLINE
  5
F2
330
1F
100
AcDbEntity
  8
AXIS
 62
   250
100
AcDbSpline
210
0.0
220
0.0
230
1.0
 70
     8
 71
     3
 72
    20
 73
    16
 74
     0
 42
0.0000000001
 43
0.0000000001
 40
0.0
 40
0.0
 40
0.0
 40
0.0
 40
0.2
 40
0.2
 40
0.2
 40
0.2
 40
0.4
 40
0.4
 40
0.4
 40
0.4
 40
0.6
 40
0.6
 40
0.6
 40
0.6
 40
1.0
 40
1.0
 40
1.0
 40
1.0
 10
-8.317
 20
-34.8853
 30
0.0
 10
-8.317
 20
-34.8853
 30
0.0
 10
-8.361
 20
-33.8154
 30
0.0
 10
-8.361
 20
-33.8154
 30
0.0
 10
-8.361
 20
-33.8154
 30
0.0
 10
-8.361
 20
-33.8154
 30
0.0
 10
-8.4051
 20
-32.7401
 30
0.0
 10
-8.4051
 20
-32.7401
 30
0.0
 10
-8.4051
 20
-32.7401
 30
0.0
 10
-8.4051
 20
-32.7401
 30
0.0
 10
-8.4494
 20
-31.6594
 30
0.0
 10
-8.4494
 20
-31.6594
 30
0.0
 10
-8.4494
 20
-31.6594
 30
0.0
 10
-8.4494
 20
-31.6594
 30
0.0
 10
-8.4475
 20
-30.6105
 30
0.0
 10
-8.4475
 20
-30.6105
 30
0.0
  0
SPLINE
  5
F3
330
1F
100
AcDbEntity
  8
AXIS
 62
   250
100
AcDbSpline
210
0.0
220
0.0
230
1.0
 70
     8
 71
     3
 72
    16
 73
    12
 74
     0
 42
0.0000000001
 43
0.0000000001
 40
0.0
 40
0.0
 40
0.0
 40
0.0
 40
0.25
 40
0.25
 40
0.25
 40
0.25
 40
0.5
 40
0.5
 40
0.5
 40
0.5
 40
1.0
 40
1.0
 40
1.0
 40
1.0
 10
0.8974
 20
-34.926
 30
0.0
 10
0.8974
 20
-34.926
 30
0.0
 10
0.9251
 20
-33.8487
 30
0.0
 10
0.9251
 20
-33.8487
 30
0.0
 10
0.9251
 20
-33.8487
 30
0.0
 10
0.9251
 20
-33.8487
 30
0.0
 10
0.9528
 20
-32.766
 30
0.0
 10
0.9528
 20
-32.766
 30
0.0
 10
0.9528
 20
-32.766
 30
0.0
 10
0.9528
 20
-32.766
 30
0.0
 10
0.9806
 20
-31.6778
 30
0.0
 10
0.9806
 20
-31.6778
 30
0.0
  0
SPLINE
  5
F4
330
1F
100
AcDbEntity
  8
AXIS
 62
   250
100
AcDbSpline
210
0.0
220
0.0
230
1.0
 70
     8
 71
     3
 72
    20
 73
    16
 74
     0
 42
0.0000000001
 43
0.0000000001
 40
0.0
 40
0.0
 40
0.0
 40
0.0
 40
0.2
 40
0.2
 40
0.2
 40
0.2
 40
0.4
 40
0.4
 40
0.4
 40
0.4
 40
0.6
 40
0.6
 40
0.6
 40
0.6
 40
1.0
 40
1.0
 40
1.0
 40
1.0
 10
-8.6847
 20
-26.2513
 30
0.0
 10
-8.6847
 20
-26.2513
 30
0.0
 10
-8.5858
 20
-26.3545
 30
0.0
 10
-8.5858
 20
-26.3545
 30
0.0
 10
-8.5858
 20
-26.3545
 30
0.0
 10
-8.5858
 20
-26.3545
 30
0.0
 10
-8.5115
 20
-26.4767
 30
0.0
 10
-8.5115
 20
-26.4767
 30
0.0
 10
-8.5115
 20
-26.4767
 30
0.0
 10
-8.5115
 20
-26.4767
 30
0.0
 10
-8.4656
 20
-26.6121
 30
0.0
 10
-8.4656
 20
-26.6121
 30
0.0
 10
-8.4656
 20
-26.6121
 30
0.0
 10
-8.4656
 20
-26.6121
 30
0.0
 10
-8.45
 20
-26.7542
 30
0.0
 10
-8.45
 20
-26.7542
 30
0.0
  0
SPLINE
  5
F5
330
1F
100
AcDbEntity
  8
AXIS
 62
   250
100
AcDbSpline
210
0.0
220
0.0
230
1.0
 70
     8
 71
     3
 72
    20
 73
    16
 74
     0
 42
0.0000000001
 43
0.0000000001
 40
0.0
 40
0.0
 40
0.0
 40
0.0
 40
0.2
 40
0.2
 40
0.2
 40
0.2
 40
0.4
 40
0.4
 40
0.4
 40
0.4
 40
0.6
 40
0.6
 40
0.6
 40
0.6
 40
1.0
 40
1.0
 40
1.0
 40
1.0
 10
0.9812
 20
-26.7542
 30
0.0
 10
0.9812
 20
-26.7542
 30
0.0
 10
0.9968
 20
-26.6121
 30
0.0
 10
0.9968
 20
-26.6121
 30
0.0
 10
0.9968
 20
-26.6121
 30
0.0
 10
0.9968
 20
-26.6121
 30
0.0
 10
1.0428
 20
-26.4767
 30
0.0
 10
1.0428
 20
-26.4767
 30
0.0
 10
1.0428
 20
-26.4767
 30
0.0
 10
1.0428
 20
-26.4767
 30
0.0
 10
1.117
 20
-26.3545
 30
0.0
 10
1.117
 20
-26.3545
 30
0.0
 10
1.117
 20
-26.3545
 30
0.0
 10
1.117
 20
-26.3545
 30
0.0
 10
1.2159
 20
-26.2513
 30
0.0
 10
1.2159
 20
-26.2513
 30
0.0
  0
SPLINE
  5
F6
330
1F
100
AcDbEntity
  8
AXIS
 62
   250
100
AcDbSpline
210
0.0
220
0.0
230
1.0
 70
    24
 71
     3
 72
     8
 73
     4
 74
     0
 42
0.0000000001
 43
0.0000000001
 40
0.0
 40
0.0
 40
0.0
 40
0.0
 40
1.0
 40
1.0
 40
1.0
 40
1.0
 10
0.9806
 20
-31.6778
 30
0.0
 10
0.9806
 20
-31.6778
 30
0.0
 10
0.9803
 20
-31.1855
 30
0.0
 10
0.9803
 20
-31.1855
 30
0.0
  0
SPLINE
  5
F7
330
1F
100
AcDbEntity
  8
AXIS
 62
   250
100
AcDbSpline
210
0.0
220
0.0
230
1.0
 70
    24
 71
     3
 72
     8
 73
     4
 74
     0
 42
0.0000000001
 43
0.0000000001
 40
0.0
 40
0.0
 40
0.0
 40
0.0
 40
1.0
 40
1.0
 40
1.0
 40
1.0
 10
-3.5536
 20
-31.6581
 30
0.0
 10
-3.5536
 20
-31.6581
 30
0.0
 10
-3.9151
 20
-31.6581
 30
0.0
 10
-3.9151
 20
-31.6581
 30
0.0
  0
SPLINE
  5
F8
330
1F
100
AcDbEntity
  8
AXIS
 62
   250
100
AcDbSpline
210
0.0
220
0.0
230
1.0
 70
    24
 71
     3
 72
     8
 73
     4
 74
     0
 42
0.0000000001
 43
0.0000000001
 40
0.0
 40
0.0
 40
0.0
 40
0.0
 40
1.0
 40
1.0
 40
1.0
 40
1.0
 10
-3.5454
 20
-31.1855
 30
0.0
 10
-3.5454
 20
-31.1855
 30
0.0
 10
-3.9233
 20
-31.1855
 30
0.0
 10
-3.9233
 20
-31.1855
 30
0.0
  0
SPLINE
  5
F9
330
1F
100
AcDbEntity
  8
AXIS
 62
   250
100
AcDbSpline
210
0.0
220
0.0
230
1.0
 70
    24
 71
     3
 72
     8
 73
     4
 74
     0
 42
0.0000000001
 43
0.0000000001
 40
0.0
 40
0.0
 40
0.0
 40
0.0
 40
1.0
 40
1.0
 40
1.0
 40
1.0
 10
0.9803
 20
-31.1855
 30
0.0
 10
0.9803
 20
-31.1855
 30
0.0
 10
0.9876
 20
-31.1855
 30
0.0
 10
0.9876
 20
-31.1855
 30
0.0
  0
SPLINE
  5
FA
330
1F
100
AcDbEntity
  8
AXIS
 62
   250
100
AcDbSpline
210
0.0
220
0.0
230
1.0
 70
    24
 71
     3
 72
     8
 73
     4
 74
     0
 42
0.0000000001
 43
0.0000000001
 40
0.0
 40
0.0
 40
0.0
 40
0.0
 40
1.0
 40
1.0
 40
1.0
 40
1.0
 10
-3.9151
 20
-31.6581
 30
0.0
 10
-3.9151
 20
-31.6581
 30
0.0
 10
-3.9233
 20
-31.1855
 30
0.0
 10
-3.9233
 20
-31.1855
 30
0.0
  0
SPLINE
  5
FB
330
1F
100
AcDbEntity
  8
AXIS
 62
   250
100
AcDbSpline
210
0.0
220
0.0
230
1.0
 70
    24
 71
     3
 72
     8
 73
     4
 74
     0
 42
0.0000000001
 43
0.0000000001
 40
0.0
 40
0.0
 40
0.0
 40
0.0
 40
1.0
 40
1.0
 40
1.0
 40
1.0
 10
-3.5454
 20
-31.1855
 30
0.0
 10
-3.5454
 20
-31.1855
 30
0.0
 10
-3.5536
 20
-31.6581
 30
0.0
 10
-3.5536
 20
-31.6581
 30
0.0
  0
SPLINE
  5
FC
330
1F
100
AcDbEntity
  8
AXIS
 62
   250
100
AcDbSpline
210
0.0
220
0.0
230
1.0
 70
    24
 71
     3
 72
     8
 73
     4
 74
     0
 42
0.0000000001
 43
0.0000000001
 40
0.0
 40
0.0
 40
0.0
 40
0.0
 40
1.0
 40
1.0
 40
1.0
 40
1.0
 10
-3.8985
 20
-26.7542
 30
0.0
 10
-3.8985
 20
-26.7542
 30
0.0
 10
-3.5702
 20
-26.7542
 30
0.0
 10
-3.5702
 20
-26.7542
 30
0.0
  0
SPLINE
  5
FD
330
1F
100
AcDbEntity
  8
AXIS
 62
   250
100
AcDbSpline
210
0.0
220
0.0
230
1.0
 70
    24
 71
     3
 72
     8
 73
     4
 74
     0
 42
0.0000000001
 43
0.0000000001
 40
0.0
 40
0.0
 40
0.0
 40
0.0
 40
1.0
 40
1.0
 40
1.0
 40
1.0
 10
-8.937
 20
-26.1201
 30
0.0
 10
-8.937
 20
-26.1201
 30
0.0
 10
-8.937
 20
-26.7542
 30
0.0
 10
-8.937
 20
-26.7542
 30
0.0
  0
SPLINE
  5
FE
330
1F
100
AcDbEntity
  8
AXIS
 62
   250
100
AcDbSpline
210
0.0
220
0.0
230
1.0
 70
    24
 71
     3
 72
     8
 73
     4
 74
     0
 42
0.0000000001
 43
0.0000000001
 40
0.0
 40
0.0
 40
0.0
 40
0.0
 40
1.0
 40
1.0
 40
1.0
 40
1.0
 10
-8.937
 20
-27.0825
 30
0.0
 10
-8.937
 20
-27.0825
 30
0.0
 10
-8.937
 20
-27.2958
 30
0.0
 10
-8.937
 20
-27.2958
 30
0.0
  0
SPLINE
  5
FF
330
1F
100
AcDbEntity
  8
AXIS
 62
   250
100
AcDbSpline
210
0.0
220
0.0
230
1.0
 70
    24
 71
     3
 72
     8
 73
     4
 74
     0
 42
0.0000000001
 43
0.0000000001
 40
0.0
 40
0.0
 40
0.0
 40
0.0
 40
1.0
 40
1.0
 40
1.0
 40
1.0
 10
-3.8985
 20
-26.1201
 30
0.0
 10
-3.8985
 20
-26.1201
 30
0.0
 10
-3.8985
 20
-27.2958
 30
0.0
 10
-3.8985
 20
-27.2958
 30
0.0
  0
SPLINE
  5
100
330
1F
100
AcDbEntity
  8
AXIS
 62
   250
100
AcDbSpline
210
0.0
220
0.0
230
1.0
 70
    24
 71
     3
 72
     8
 73
     4
 74
     0
 42
0.0000000001
 43
0.0000000001
 40
0.0
 40
0.0
 40
0.0
 40
0.0
 40
1.0
 40
1.0
 40
1.0
 40
1.0
 10
-3.5702
 20
-26.1201
 30
0.0
 10
-3.5702
 20
-26.1201
 30
0.0
 10
-3.5702
 20
-27.2958
 30
0.0
 10
-3.5702
 20
-27.2958
 30
0.0
  0
SPLINE
  5
101
330
1F
100
AcDbEntity
  8
AXIS
 62
   250
100
AcDbSpline
210
0.0
220
0.0
230
1.0
 70
    24
 71
     3
 72
     8
 73
     4
 74
     0
 42
0.0000000001
 43
0.0000000001
 40
0.0
 40
0.0
 40
0.0
 40
0.0
 40
1.0
 40
1.0
 40
1.0
 40
1.0
 10
1.4682
 20
-27.2958
 30
0.0
 10
1.4682
 20
-27.2958
 30
0.0
 10
1.4682
 20
-27.0825
 30
0.0
 10
1.4682
 20
-27.0825
 30
0.0
  0
SPLINE
  5
102
330
1F
100
AcDbEntity
  8
AXIS
 62
   250
100
AcDbSpline
210
0.0
220
0.0
230
1.0
 70
    24
 71
     3
 72
     8
 73
     4
 74
     0
 42
0.0000000001
 43
0.0000000001
 40
0.0
 40
0.0
 40
0.0
 40
0.0
 40
1.0
 40
1.0
 40
1.0
 40
1.0
 10
1.4682
 20
-26.7542
 30
0.0
 10
1.4682
 20
-26.7542
 30
0.0
 10
1.4682
 20
-26.1201
 30
0.0
 10
1.4682
 20
-26.1201
 30
0.0
  0
SPLINE
  5
103
330
1F
100
AcDbEntity
  8
AXIS
 62
   250
100
AcDbSpline
210
0.0
220
0.0
230
1.0
 70
     8
 71
     3
 72
    12
 73
     8
 74
     0
 42
0.0000000001
 43
0.0000000001
 40
0.0
 40
0.0
 40
0.0
 40
0.0
 40
0.3333333333333333
 40
0.3333333333333333
 40
0.3333333333333333
 40
0.3333333333333333
 40
1.0
 40
1.0
 40
1.0
 40
1.0
 10
-8.937
 20
-26.7542
 30
0.0
 10
-9.0276
 20
-26.7542
 30
0.0
 10
-9.1011
 20
-26.8277
 30
0.0
 10
-9.1011
 20
-26.9183
 30
0.0
 10
-9.1011
 20
-26.9183
 30
0.0
 10
-9.1011
 20
-27.009
 30
0.0
 10
-9.0276
 20
-27.0825
 30
0.0
 10
-8.937
 20
-27.0825
 30
0.0
  0
SPLINE
  5
104
330
1F
100
AcDbEntity
  8
AXIS
 62
   250
100
AcDbSpline
210
0.0
220
0.0
230
1.0
 70
     8
 71
     3
 72
    12
 73
     8
 74
     0
 42
0.0000000001
 43
0.0000000001
 40
0.0
 40
0.0
 40
0.0
 40
0.0
 40
0.3333333333333333
 40
0.3333333333333333
 40
0.3333333333333333
 40
0.3333333333333333
 40
1.0
 40
1.0
 40
1.0
 40
1.0
 10
1.4682
 20
-27.0825
 30
0.0
 10
1.5589
 20
-27.0825
 30
0.0
 10
1.6324
 20
-27.009
 30
0.0
 10
1.6324
 20
-26.9183
 30
0.0
 10
1.6324
 20
-26.9183
 30
0.0
 10
1.6324
 20
-26.8277
 30
0.0
 10
1.5589
 20
-26.7542
 30
0.0
 10
1.4682
 20
-26.7542
 30
0.0
  0
SPLINE
  5
105
330
1F
100
AcDbEntity
  8
AXIS
 62
   250
100
AcDbSpline
210
0.0
220
0.0
230
1.0
 70
     8
 71
     3
 72
    44
 73
    40
 74
     0
 42
0.0000000001
 43
0.0000000001
 40
0.0
 40
0.0
 40
0.0
 40
0.0
 40
0.0909090909090909
 40
0.0909090909090909
 40
0.0909090909090909
 40
0.0909090909090909
 40
0.1818181818181818
 40
0.1818181818181818
 40
0.1818181818181818
 40
0.1818181818181818
 40
0.2727272727272727
 40
0.2727272727272727
 40
0.2727272727272727
 40
0.2727272727272727
 40
0.3636363636363636
 40
0.3636363636363636
 40
0.3636363636363636
 40
0.3636363636363636
 40
0.4545454545454545
 40
0.4545454545454545
 40
0.4545454545454545
 40
0.4545454545454545
 40
0.5454545454545454
 40
0.5454545454545454
 40
0.5454545454545454
 40
0.5454545454545454
 40
0.6363636363636364
 40
0.6363636363636364
 40
0.6363636363636364
 40
0.6363636363636364
 40
0.7272727272727273
 40
0.7272727272727273
 40
0.7272727272727273
 40
0.7272727272727273
 40
0.8181818181818182
 40
0.8181818181818182
 40
0.8181818181818182
 40
0.8181818181818182
 40
1.0
 40
1.0
 40
1.0
 40
1.0
 10
-8.4564
 20
-31.1855
 30
0.0
 10
-8.581
 20
-31.1855
 30
0.0
 10
-8.7003
 20
-31.2355
 30
0.0
 10
-8.7877
 20
-31.3244
 30
0.0
 10
-8.7877
 20
-31.3244
 30
0.0
 10
-8.875
 20
-31.4132
 30
0.0
 10
-8.9229
 20
-31.5335
 30
0.0
 10
-8.9208
 20
-31.6581
 30
0.0
 10
-8.9208
 20
-31.6581
 30
0.0
 10
-8.9208
 20
-31.6581
 30
0.0
 10
-8.8783
 20
-34.9586
 30
0.0
 10
-8.8783
 20
-34.9586
 30
0.0
 10
-8.8783
 20
-34.9586
 30
0.0
 10
-8.8783
 20
-34.9586
 30
0.0
 10
-8.8191
 20
-35.1839
 30
0.0
 10
-8.8191
 20
-35.1839
 30
0.0
 10
-8.8191
 20
-35.1839
 30
0.0
 10
-8.8191
 20
-35.1839
 30
0.0
 10
-8.7481
 20
-35.2313
 30
0.0
 10
-8.7481
 20
-35.2313
 30
0.0
 10
-8.7481
 20
-35.2313
 30
0.0
 10
-8.7481
 20
-35.2313
 30
0.0
 10
-8.5588
 20
-35.3262
 30
0.0
 10
-8.5588
 20
-35.3262
 30
0.0
 10
-8.5588
 20
-35.3262
 30
0.0
 10
-8.5588
 20
-35.3262
 30
0.0
 10
-8.3694
 20
-35.255
 30
0.0
 10
-8.3694
 20
-35.255
 30
0.0
 10
-8.3694
 20
-35.255
 30
0.0
 10
-8.3694
 20
-35.255
 30
0.0
 10
-8.2866
 20
-35.1246
 30
0.0
 10
-8.2866
 20
-35.1246
 30
0.0
 10
-8.2866
 20
-35.1246
 30
0.0
 10
-8.2866
 20
-35.1246
 30
0.0
 10
-8.181
 20
-34.96
 30
0.0
 10
-8.181
 20
-34.96
 30
0.0
 10
-8.181
 20
-34.96
 30
0.0
 10
-8.181
 20
-34.96
 30
0.0
 10
-8.1801
 20
-34.9586
 30
0.0
 10
-8.1801
 20
-34.9586
 30
0.0
  0
SPLINE
  5
106
330
1F
100
AcDbEntity
  8
AXIS
 62
   250
100
AcDbSpline
210
0.0
220
0.0
230
1.0
 70
     8
 71
     3
 72
    48
 73
    44
 74
     0
 42
0.0000000001
 43
0.0000000001
 40
0.0
 40
0.0
 40
0.0
 40
0.0
 40
0.0833333333333333
 40
0.0833333333333333
 40
0.0833333333333333
 40
0.0833333333333333
 40
0.1666666666666667
 40
0.1666666666666667
 40
0.1666666666666667
 40
0.1666666666666667
 40
0.25
 40
0.25
 40
0.25
 40
0.25
 40
0.3333333333333333
 40
0.3333333333333333
 40
0.3333333333333333
 40
0.3333333333333333
 40
0.4166666666666667
 40
0.4166666666666667
 40
0.4166666666666667
 40
0.4166666666666667
 40
0.5
 40
0.5
 40
0.5
 40
0.5
 40
0.5833333333333334
 40
0.5833333333333334
 40
0.5833333333333334
 40
0.5833333333333334
 40
0.6666666666666666
 40
0.6666666666666666
 40
0.6666666666666666
 40
0.6666666666666666
 40
0.75
 40
0.75
 40
0.75
 40
0.75
 40
0.8333333333333334
 40
0.8333333333333334
 40
0.8333333333333334
 40
0.8333333333333334
 40
1.0
 40
1.0
 40
1.0
 40
1.0
 10
0.9747
 20
-31.169
 30
0.0
 10
1.0994
 20
-31.169
 30
0.0
 10
1.2187
 20
-31.219
 30
0.0
 10
1.3061
 20
-31.3079
 30
0.0
 10
1.3061
 20
-31.3079
 30
0.0
 10
1.3934
 20
-31.3967
 30
0.0
 10
1.4414
 20
-31.517
 30
0.0
 10
1.4392
 20
-31.6416
 30
0.0
 10
1.4392
 20
-31.6416
 30
0.0
 10
1.4392
 20
-31.6416
 30
0.0
 10
1.3967
 20
-34.9421
 30
0.0
 10
1.3967
 20
-34.9421
 30
0.0
 10
1.3967
 20
-34.9421
 30
0.0
 10
1.3967
 20
-34.9421
 30
0.0
 10
1.392
 20
-34.96
 30
0.0
 10
1.392
 20
-34.96
 30
0.0
 10
1.392
 20
-34.96
 30
0.0
 10
1.392
 20
-34.96
 30
0.0
 10
1.3375
 20
-35.1674
 30
0.0
 10
1.3375
 20
-35.1674
 30
0.0
 10
1.3375
 20
-35.1674
 30
0.0
 10
1.3375
 20
-35.1674
 30
0.0
 10
1.2665
 20
-35.2148
 30
0.0
 10
1.2665
 20
-35.2148
 30
0.0
 10
1.2665
 20
-35.2148
 30
0.0
 10
1.2665
 20
-35.2148
 30
0.0
 10
1.0772
 20
-35.3097
 30
0.0
 10
1.0772
 20
-35.3097
 30
0.0
 10
1.0772
 20
-35.3097
 30
0.0
 10
1.0772
 20
-35.3097
 30
0.0
 10
0.8877
 20
-35.2385
 30
0.0
 10
0.8877
 20
-35.2385
 30
0.0
 10
0.8877
 20
-35.2385
 30
0.0
 10
0.8877
 20
-35.2385
 30
0.0
 10
0.8049
 20
-35.1081
 30
0.0
 10
0.8049
 20
-35.1081
 30
0.0
 10
0.8049
 20
-35.1081
 30
0.0
 10
0.8049
 20
-35.1081
 30
0.0
 10
0.7099
 20
-34.96
 30
0.0
 10
0.7099
 20
-34.96
 30
0.0
 10
0.7099
 20
-34.96
 30
0.0
 10
0.7099
 20
-34.96
 30
0.0
 10
0.6984
 20
-34.9421
 30
0.0
 10
0.6984
 20
-34.9421
 30
0.0
  0
SPLINE
  5
107
330
1F
100
AcDbEntity
  8
AXIS
 62
   250
100
AcDbSpline
210
0.0
220
0.0
230
1.0
 70
    27
 71
     3
 72
    36
 73
    32
 74
     0
 42
0.0000000001
 43
0.0000000001
 40
0.0
 40
0.0
 40
0.0
 40
0.0
 40
0.1111111111111111
 40
0.1111111111111111
 40
0.1111111111111111
 40
0.1111111111111111
 40
0.2222222222222222
 40
0.2222222222222222
 40
0.2222222222222222
 40
0.2222222222222222
 40
0.3333333333333333
 40
0.3333333333333333
 40
0.3333333333333333
 40
0.3333333333333333
 40
0.4444444444444444
 40
0.4444444444444444
 40
0.4444444444444444
 40
0.4444444444444444
 40
0.5555555555555556
 40
0.5555555555555556
 40
0.5555555555555556
 40
0.5555555555555556
 40
0.6666666666666666
 40
0.6666666666666666
 40
0.6666666666666666
 40
0.6666666666666666
 40
0.7777777777777778
 40
0.7777777777777778
 40
0.7777777777777778
 40
0.7777777777777778
 40
1.0
 40
1.0
 40
1.0
 40
1.0
 10
-8.8633
 20
-34.96
 30
0.0
 10
-8.8633
 20
-34.96
 30
0.0
 10
-8.181
 20
-34.96
 30
0.0
 10
-8.181
 20
-34.96
 30
0.0
 10
-8.181
 20
-34.96
 30
0.0
 10
-8.181
 20
-34.96
 30
0.0
 10
0.7099
 20
-34.96
 30
0.0
 10
0.7099
 20
-34.96
 30
0.0
 10
0.7099
 20
-34.96
 30
0.0
 10
0.7099
 20
-34.96
 30
0.0
 10
1.392
 20
-34.96
 30
0.0
 10
1.392
 20
-34.96
 30
0.0
 10
1.392
 20
-34.96
 30
0.0
 10
1.392
 20
-34.96
 30
0.0
 10
1.3947
 20
-34.96
 30
0.0
 10
1.3947
 20
-34.96
 30
0.0
 10
1.3947
 20
-34.96
 30
0.0
 10
1.3947
 20
-34.96
 30
0.0
 10
1.392
 20
-34.96
 30
0.0
 10
1.392
 20
-34.96
 30
0.0
 10
1.392
 20
-34.96
 30
0.0
 10
1.392
 20
-34.96
 30
0.0
 10
0.7099
 20
-34.96
 30
0.0
 10
0.7099
 20
-34.96
 30
0.0
 10
0.7099
 20
-34.96
 30
0.0
 10
0.7099
 20
-34.96
 30
0.0
 10
-8.181
 20
-34.96
 30
0.0
 10
-8.181
 20
-34.96
 30
0.0
 10
-8.181
 20
-34.96
 30
0.0
 10
-8.181
 20
-34.96
 30
0.0
 10
-8.8633
 20
-34.96
 30
0.0
 10
-8.8633
 20
-34.96
 30
0.0
  0
SPLINE
  5
108
330
1F
100
AcDbEntity
  8
AXIS
 62
   250
100
AcDbSpline
210
0.0
220
0.0
230
1.0
 70
    24
 71
     3
 72
     8
 73
     4
 74
     0
 42
0.0000000001
 43
0.0000000001
 40
0.0
 40
0.0
 40
0.0
 40
0.0
 40
1.0
 40
1.0
 40
1.0
 40
1.0
 10
-10.6847
 20
-8.4519
 30
0.0
 10
-10.6847
 20
-8.4519
 30
0.0
 10
-10.7392
 20
-11.5731
 30
0.0
 10
-10.7392
 20
-11.5731
 30
0.0
  0
SPLINE
  5
109
330
1F
100
AcDbEntity
  8
AXIS
 62
   250
100
AcDbSpline
210
0.0
220
0.0
230
1.0
 70
    24
 71
     3
 72
     8
 73
     4
 74
     0
 42
0.0000000001
 43
0.0000000001
 40
0.0
 40
0.0
 40
0.0
 40
0.0
 40
1.0
 40
1.0
 40
1.0
 40
1.0
 10
-1.3844
 20
-9.121
 30
0.0
 10
-1.3844
 20
-9.121
 30
0.0
 10
-6.0976
 20
-9.121
 30
0.0
 10
-6.0976
 20
-9.121
 30
0.0
  0
SPLINE
  5
10A
330
1F
100
AcDbEntity
  8
AXIS
 62
   250
100
AcDbSpline
210
0.0
220
0.0
230
1.0
 70
    24
 71
     3
 72
     8
 73
     4
 74
     0
 42
0.0000000001
 43
0.0000000001
 40
0.0
 40
0.0
 40
0.0
 40
0.0
 40
1.0
 40
1.0
 40
1.0
 40
1.0
 10
-6.0989
 20
-8.5958
 30
0.0
 10
-6.0989
 20
-8.5958
 30
0.0
 10
-1.4306
 20
-8.5958
 30
0.0
 10
-1.4306
 20
-8.5958
 30
0.0
  0
SPLINE
  5
10B
330
1F
100
AcDbEntity
  8
AXIS
 62
   250
100
AcDbSpline
210
0.0
220
0.0
230
1.0
 70
    24
 71
     3
 72
     8
 73
     4
 74
     0
 42
0.0000000001
 43
0.0000000001
 40
0.0
 40
0.0
 40
0.0
 40
0.0
 40
1.0
 40
1.0
 40
1.0
 40
1.0
 10
-6.0998
 20
-8.2675
 30
0.0
 10
-6.0998
 20
-8.2675
 30
0.0
 10
-1.4419
 20
-8.2675
 30
0.0
 10
-1.4419
 20
-8.2675
 30
0.0
  0
SPLINE
  5
10C
330
1F
100
AcDbEntity
  8
AXIS
 62
   250
100
AcDbSpline
210
0.0
220
0.0
230
1.0
 70
    24
 71
     3
 72
     8
 73
     4
 74
     0
 42
0.0000000001
 43
0.0000000001
 40
0.0
 40
0.0
 40
0.0
 40
0.0
 40
1.0
 40
1.0
 40
1.0
 40
1.0
 10
-6.5319
 20
-7.9624
 30
0.0
 10
-6.5319
 20
-7.9624
 30
0.0
 10
-0.2259
 20
-7.9624
 30
0.0
 10
-0.2259
 20
-7.9624
 30
0.0
  0
SPLINE
  5
10D
330
1F
100
AcDbEntity
  8
AXIS
 62
   250
100
AcDbSpline
210
0.0
220
0.0
230
1.0
 70
    24
 71
     3
 72
     8
 73
     4
 74
     0
 42
0.0000000001
 43
0.0000000001
 40
0.0
 40
0.0
 40
0.0
 40
0.0
 40
1.0
 40
1.0
 40
1.0
 40
1.0
 10
-4.7866
 20
-6.7315
 30
0.0
 10
-4.7866
 20
-6.7315
 30
0.0
 10
-2.7911
 20
-6.7315
 30
0.0
 10
-2.7911
 20
-6.7315
 30
0.0
  0
SPLINE
  5
10E
330
1F
100
AcDbEntity
  8
AXIS
 62
   250
100
AcDbSpline
210
0.0
220
0.0
230
1.0
 70
    24
 71
     3
 72
     8
 73
     4
 74
     0
 42
0.0000000001
 43
0.0000000001
 40
0.0
 40
0.0
 40
0.0
 40
0.0
 40
1.0
 40
1.0
 40
1.0
 40
1.0
 10
-6.5319
 20
-7.9624
 30
0.0
 10
-6.5319
 20
-7.9624
 30
0.0
 10
-6.5271
 20
-8.2906
 30
0.0
 10
-6.5271
 20
-8.2906
 30
0.0
  0
SPLINE
  5
10F
330
1F
100
AcDbEntity
  8
AXIS
 62
   250
100
AcDbSpline
210
0.0
220
0.0
230
1.0
 70
    24
 71
     3
 72
     8
 73
     4
 74
     0
 42
0.0000000001
 43
0.0000000001
 40
0.0
 40
0.0
 40
0.0
 40
0.0
 40
1.0
 40
1.0
 40
1.0
 40
1.0
 10
-6.0976
 20
-9.121
 30
0.0
 10
-6.0976
 20
-9.121
 30
0.0
 10
-6.1007
 20
-7.9393
 30
0.0
 10
-6.1007
 20
-7.9393
 30
0.0
  0
SPLINE
  5
110
330
1F
100
AcDbEntity
  8
AXIS
 62
   250
100
AcDbSpline
210
0.0
220
0.0
230
1.0
 70
    24
 71
     3
 72
     8
 73
     4
 74
     0
 42
0.0000000001
 43
0.0000000001
 40
0.0
 40
0.0
 40
0.0
 40
0.0
 40
1.0
 40
1.0
 40
1.0
 40
1.0
 10
-5.2529
 20
-8.5958
 30
0.0
 10
-5.2529
 20
-8.5958
 30
0.0
 10
-5.2526
 20
-9.121
 30
0.0
 10
-5.2526
 20
-9.121
 30
0.0
  0
SPLINE
  5
111
330
1F
100
AcDbEntity
  8
AXIS
 62
   250
100
AcDbSpline
210
0.0
220
0.0
230
1.0
 70
    24
 71
     3
 72
     8
 73
     4
 74
     0
 42
0.0000000001
 43
0.0000000001
 40
0.0
 40
0.0
 40
0.0
 40
0.0
 40
1.0
 40
1.0
 40
1.0
 40
1.0
 10
-4.7866
 20
-6.7315
 30
0.0
 10
-4.7866
 20
-6.7315
 30
0.0
 10
-4.7866
 20
-7.1418
 30
0.0
 10
-4.7866
 20
-7.1418
 30
0.0
  0
SPLINE
  5
112
330
1F
100
AcDbEntity
  8
AXIS
 62
   250
100
AcDbSpline
210
0.0
220
0.0
230
1.0
 70
    24
 71
     3
 72
     8
 73
     4
 74
     0
 42
0.0000000001
 43
0.0000000001
 40
0.0
 40
0.0
 40
0.0
 40
0.0
 40
1.0
 40
1.0
 40
1.0
 40
1.0
 10
-5.2651
 20
-8.5958
 30
0.0
 10
-5.2651
 20
-8.5958
 30
0.0
 10
-5.2651
 20
-9.121
 30
0.0
 10
-5.2651
 20
-9.121
 30
0.0
  0
SPLINE
  5
113
330
1F
100
AcDbEntity
  8
AXIS
 62
   250
100
AcDbSpline
210
0.0
220
0.0
230
1.0
 70
    24
 71
     3
 72
     8
 73
     4
 74
     0
 42
0.0000000001
 43
0.0000000001
 40
0.0
 40
0.0
 40
0.0
 40
0.0
 40
1.0
 40
1.0
 40
1.0
 40
1.0
 10
-2.7911
 20
-6.7315
 30
0.0
 10
-2.7911
 20
-6.7315
 30
0.0
 10
-2.7911
 20
-7.1418
 30
0.0
 10
-2.7911
 20
-7.1418
 30
0.0
  0
SPLINE
  5
114
330
1F
100
AcDbEntity
  8
AXIS
 62
   250
100
AcDbSpline
210
0.0
220
0.0
230
1.0
 70
    24
 71
     3
 72
     8
 73
     4
 74
     0
 42
0.0000000001
 43
0.0000000001
 40
0.0
 40
0.0
 40
0.0
 40
0.0
 40
1.0
 40
1.0
 40
1.0
 40
1.0
 10
-2.2447
 20
-8.5958
 30
0.0
 10
-2.2447
 20
-8.5958
 30
0.0
 10
-2.2447
 20
-9.121
 30
0.0
 10
-2.2447
 20
-9.121
 30
0.0
  0
SPLINE
  5
115
330
1F
100
AcDbEntity
  8
AXIS
 62
   250
100
AcDbSpline
210
0.0
220
0.0
230
1.0
 70
    24
 71
     3
 72
     8
 73
     4
 74
     0
 42
0.0000000001
 43
0.0000000001
 40
0.0
 40
0.0
 40
0.0
 40
0.0
 40
1.0
 40
1.0
 40
1.0
 40
1.0
 10
-2.0338
 20
-7.9393
 30
0.0
 10
-2.0338
 20
-7.9393
 30
0.0
 10
-2.0338
 20
-8.2675
 30
0.0
 10
-2.0338
 20
-8.2675
 30
0.0
  0
SPLINE
  5
116
330
1F
100
AcDbEntity
  8
AXIS
 62
   250
100
AcDbSpline
210
0.0
220
0.0
230
1.0
 70
    24
 71
     3
 72
     8
 73
     4
 74
     0
 42
0.0000000001
 43
0.0000000001
 40
0.0
 40
0.0
 40
0.0
 40
0.0
 40
1.0
 40
1.0
 40
1.0
 40
1.0
 10
-1.4306
 20
-8.5958
 30
0.0
 10
-1.4306
 20
-8.5958
 30
0.0
 10
-1.4292
 20
-9.121
 30
0.0
 10
-1.4292
 20
-9.121
 30
0.0
  0
SPLINE
  5
117
330
1F
100
AcDbEntity
  8
AXIS
 62
   250
100
AcDbSpline
210
0.0
220
0.0
230
1.0
 70
    24
 71
     3
 72
     8
 73
     4
 74
     0
 42
0.0000000001
 43
0.0000000001
 40
0.0
 40
0.0
 40
0.0
 40
0.0
 40
1.0
 40
1.0
 40
1.0
 40
1.0
 10
-1.3875
 20
-7.9393
 30
0.0
 10
-1.3875
 20
-7.9393
 30
0.0
 10
-1.3844
 20
-9.121
 30
0.0
 10
-1.3844
 20
-9.121
 30
0.0
  0
SPLINE
  5
118
330
1F
100
AcDbEntity
  8
AXIS
 62
   250
100
AcDbSpline
210
0.0
220
0.0
230
1.0
 70
    24
 71
     3
 72
     8
 73
     4
 74
     0
 42
0.0000000001
 43
0.0000000001
 40
0.0
 40
0.0
 40
0.0
 40
0.0
 40
1.0
 40
1.0
 40
1.0
 40
1.0
 10
-1.4419
 20
-8.2675
 30
0.0
 10
-1.4419
 20
-8.2675
 30
0.0
 10
-1.4419
 20
-8.5958
 30
0.0
 10
-1.4419
 20
-8.5958
 30
0.0
  0
SPLINE
  5
119
330
1F
100
AcDbEntity
  8
AXIS
 62
   250
100
AcDbSpline
210
0.0
220
0.0
230
1.0
 70
    24
 71
     3
 72
     8
 73
     4
 74
     0
 42
0.0000000001
 43
0.0000000001
 40
0.0
 40
0.0
 40
0.0
 40
0.0
 40
1.0
 40
1.0
 40
1.0
 40
1.0
 10
3.107
 20
-8.4519
 30
0.0
 10
3.107
 20
-8.4519
 30
0.0
 10
3.1615
 20
-11.5731
 30
0.0
 10
3.1615
 20
-11.5731
 30
0.0
  0
SPLINE
  5
11A
330
1F
100
AcDbEntity
  8
AXIS
 62
   250
100
AcDbSpline
210
0.0
220
0.0
230
1.0
 70
    11
 71
     3
 72
   100
 73
    96
 74
     0
 42
0.0000000001
 43
0.0000000001
 40
0.0
 40
0.0
 40
0.0
 40
0.0
 40
0.04
 40
0.04
 40
0.04
 40
0.04
 40
0.08
 40
0.08
 40
0.08
 40
0.08
 40
0.12
 40
0.12
 40
0.12
 40
0.12
 40
0.16
 40
0.16
 40
0.16
 40
0.16
 40
0.2
 40
0.2
 40
0.2
 40
0.2
 40
0.24
 40
0.24
 40
0.24
 40
0.24
 40
0.28
 40
0.28
 40
0.28
 40
0.28
 40
0.32
 40
0.32
 40
0.32
 40
0.32
 40
0.36
 40
0.36
 40
0.36
 40
0.36
 40
0.4
 40
0.4
 40
0.4
 40
0.4
 40
0.44
 40
0.44
 40
0.44
 40
0.44
 40
0.48
 40
0.48
 40
0.48
 40
0.48
 40
0.52
 40
0.52
 40
0.52
 40
0.52
 40
0.56
 40
0.56
 40
0.56
 40
0.56
 40
0.6
 40
0.6
 40
0.6
 40
0.6
 40
0.64
 40
0.64
 40
0.64
 40
0.64
 40
0.68
 40
0.68
 40
0.68
 40
0.68
 40
0.72
 40
0.72
 40
0.72
 40
0.72
 40
0.76
 40
0.76
 40
0.76
 40
0.76
 40
0.8
 40
0.8
 40
0.8
 40
0.8
 40
0.84
 40
0.84
 40
0.84
 40
0.84
 40
0.88
 40
0.88
 40
0.88
 40
0.88
 40
0.92
 40
0.92
 40
0.92
 40
0.92
 40
1.0
 40
1.0
 40
1.0
 40
1.0
 10
-7.9781
 20
-6.3234
 30
0.0
 10
-7.9781
 20
-6.3234
 30
0.0
 10
-8.084
 20
-6.3413
 30
0.0
 10
-8.084
 20
-6.3413
 30
0.0
 10
-8.084
 20
-6.3413
 30
0.0
 10
-8.084
 20
-6.3413
 30
0.0
 10
-8.1855
 20
-6.3765
 30
0.0
 10
-8.1855
 20
-6.3765
 30
0.0
 10
-8.1855
 20
-6.3765
 30
0.0
 10
-8.1855
 20
-6.3765
 30
0.0
 10
-8.28
 20
-6.4281
 30
0.0
 10
-8.28
 20
-6.4281
 30
0.0
 10
-8.28
 20
-6.4281
 30
0.0
 10
-8.28
 20
-6.4281
 30
0.0
 10
-8.3647
 20
-6.4947
 30
0.0
 10
-8.3647
 20
-6.4947
 30
0.0
 10
-8.3647
 20
-6.4947
 30
0.0
 10
-8.3647
 20
-6.4947
 30
0.0
 10
-8.4374
 20
-6.5745
 30
0.0
 10
-8.4374
 20
-6.5745
 30
0.0
 10
-8.4374
 20
-6.5745
 30
0.0
 10
-8.4374
 20
-6.5745
 30
0.0
 10
-8.4962
 20
-6.6652
 30
0.0
 10
-8.4962
 20
-6.6652
 30
0.0
 10
-8.4962
 20
-6.6652
 30
0.0
 10
-8.4962
 20
-6.6652
 30
0.0
 10
-8.5393
 20
-6.7645
 30
0.0
 10
-8.5393
 20
-6.7645
 30
0.0
 10
-8.5393
 20
-6.7645
 30
0.0
 10
-8.5393
 20
-6.7645
 30
0.0
 10
-8.5657
 20
-6.8696
 30
0.0
 10
-8.5657
 20
-6.8696
 30
0.0
 10
-8.5657
 20
-6.8696
 30
0.0
 10
-8.5657
 20
-6.8696
 30
0.0
 10
-8.5745
 20
-6.9777
 30
0.0
 10
-8.5745
 20
-6.9777
 30
0.0
 10
-8.5745
 20
-6.9777
 30
0.0
 10
-8.5745
 20
-6.9777
 30
0.0
 10
-8.5683
 20
-7.1228
 30
0.0
 10
-8.5683
 20
-7.1228
 30
0.0
 10
-8.5683
 20
-7.1228
 30
0.0
 10
-8.5683
 20
-7.1228
 30
0.0
 10
-8.4663
 20
-7.3523
 30
0.0
 10
-8.4663
 20
-7.3523
 30
0.0
 10
-8.4663
 20
-7.3523
 30
0.0
 10
-8.4663
 20
-7.3523
 30
0.0
 10
-8.3303
 20
-7.5138
 30
0.0
 10
-8.3303
 20
-7.5138
 30
0.0
 10
-8.3303
 20
-7.5138
 30
0.0
 10
-8.3303
 20
-7.5138
 30
0.0
 10
-8.1263
 20
-7.6073
 30
0.0
 10
-8.1263
 20
-7.6073
 30
0.0
 10
-8.1263
 20
-7.6073
 30
0.0
 10
-8.1263
 20
-7.6073
 30
0.0
 10
-7.9478
 20
-7.6328
 30
0.0
 10
-7.9478
 20
-7.6328
 30
0.0
 10
-7.9478
 20
-7.6328
 30
0.0
 10
-7.9478
 20
-7.6328
 30
0.0
 10
-7.7098
 20
-7.6073
 30
0.0
 10
-7.7098
 20
-7.6073
 30
0.0
 10
-7.7098
 20
-7.6073
 30
0.0
 10
-7.7098
 20
-7.6073
 30
0.0
 10
-7.4973
 20
-7.4713
 30
0.0
 10
-7.4973
 20
-7.4713
 30
0.0
 10
-7.4973
 20
-7.4713
 30
0.0
 10
-7.4973
 20
-7.4713
 30
0.0
 10
-7.3698
 20
-7.3523
 30
0.0
 10
-7.3698
 20
-7.3523
 30
0.0
 10
-7.3698
 20
-7.3523
 30
0.0
 10
-7.3698
 20
-7.3523
 30
0.0
 10
-7.3188
 20
-7.1823
 30
0.0
 10
-7.3188
 20
-7.1823
 30
0.0
 10
-7.3188
 20
-7.1823
 30
0.0
 10
-7.3188
 20
-7.1823
 30
0.0
 10
-7.3103
 20
-6.8848
 30
0.0
 10
-7.3103
 20
-6.8848
 30
0.0
 10
-7.3103
 20
-6.8848
 30
0.0
 10
-7.3103
 20
-6.8848
 30
0.0
 10
-7.3783
 20
-6.6128
 30
0.0
 10
-7.3783
 20
-6.6128
 30
0.0
 10
-7.3783
 20
-6.6128
 30
0.0
 10
-7.3783
 20
-6.6128
 30
0.0
 10
-7.4973
 20
-6.4513
 30
0.0
 10
-7.4973
 20
-6.4513
 30
0.0
 10
-7.4973
 20
-6.4513
 30
0.0
 10
-7.4973
 20
-6.4513
 30
0.0
 10
-7.7778
 20
-6.3408
 30
0.0
 10
-7.7778
 20
-6.3408
 30
0.0
 10
-7.7778
 20
-6.3408
 30
0.0
 10
-7.7778
 20
-6.3408
 30
0.0
 10
-7.9244
 20
-6.3212
 30
0.0
 10
-7.9244
 20
-6.3212
 30
0.0
 10
-7.9244
 20
-6.3212
 30
0.0
 10
-7.9244
 20
-6.3212
 30
0.0
 10
-7.9781
 20
-6.3234
 30
0.0
 10
-7.9781
 20
-6.3234
 30
0.0
  0
SPLINE
  5
11B
330
1F
100
AcDbEntity
  8
AXIS
 62
   250
100
AcDbSpline
210
0.0
220
0.0
230
1.0
 70
     8
 71
     3
 72
    36
 73
    32
 74
     0
 42
0.0000000001
 43
0.0000000001
 40
0.0
 40
0.0
 40
0.0
 40
0.0
 40
0.1111111111111111
 40
0.1111111111111111
 40
0.1111111111111111
 40
0.1111111111111111
 40
0.2222222222222222
 40
0.2222222222222222
 40
0.2222222222222222
 40
0.2222222222222222
 40
0.3333333333333333
 40
0.3333333333333333
 40
0.3333333333333333
 40
0.3333333333333333
 40
0.4444444444444444
 40
0.4444444444444444
 40
0.4444444444444444
 40
0.4444444444444444
 40
0.5555555555555556
 40
0.5555555555555556
 40
0.5555555555555556
 40
0.5555555555555556
 40
0.6666666666666666
 40
0.6666666666666666
 40
0.6666666666666666
 40
0.6666666666666666
 40
0.7777777777777778
 40
0.7777777777777778
 40
0.7777777777777778
 40
0.7777777777777778
 40
1.0
 40
1.0
 40
1.0
 40
1.0
 10
-5.2252
 20
-6.2391
 30
0.0
 10
-5.2252
 20
-6.2391
 30
0.0
 10
-4.8667
 20
-6.4074
 30
0.0
 10
-4.8667
 20
-6.4074
 30
0.0
 10
-4.8667
 20
-6.4074
 30
0.0
 10
-4.8667
 20
-6.4074
 30
0.0
 10
-4.5067
 20
-6.522
 30
0.0
 10
-4.5067
 20
-6.522
 30
0.0
 10
-4.5067
 20
-6.522
 30
0.0
 10
-4.5067
 20
-6.522
 30
0.0
 10
-4.1473
 20
-6.5885
 30
0.0
 10
-4.1473
 20
-6.5885
 30
0.0
 10
-4.1473
 20
-6.5885
 30
0.0
 10
-4.1473
 20
-6.5885
 30
0.0
 10
-3.7888
 20
-6.6102
 30
0.0
 10
-3.7888
 20
-6.6102
 30
0.0
 10
-3.7888
 20
-6.6102
 30
0.0
 10
-3.7888
 20
-6.6102
 30
0.0
 10
-3.4303
 20
-6.5884
 30
0.0
 10
-3.4303
 20
-6.5884
 30
0.0
 10
-3.4303
 20
-6.5884
 30
0.0
 10
-3.4303
 20
-6.5884
 30
0.0
 10
-3.0709
 20
-6.522
 30
0.0
 10
-3.0709
 20
-6.522
 30
0.0
 10
-3.0709
 20
-6.522
 30
0.0
 10
-3.0709
 20
-6.522
 30
0.0
 10
-2.7109
 20
-6.4074
 30
0.0
 10
-2.7109
 20
-6.4074
 30
0.0
 10
-2.7109
 20
-6.4074
 30
0.0
 10
-2.7109
 20
-6.4074
 30
0.0
 10
-2.3525
 20
-6.2391
 30
0.0
 10
-2.3525
 20
-6.2391
 30
0.0
  0
SPLINE
  5
11C
330
1F
100
AcDbEntity
  8
AXIS
 62
   250
100
AcDbSpline
210
0.0
220
0.0
230
1.0
 70
     8
 71
     3
 72
    16
 73
    12
 74
     0
 42
0.0000000001
 43
0.0000000001
 40
0.0
 40
0.0
 40
0.0
 40
0.0
 40
0.25
 40
0.25
 40
0.25
 40
0.25
 40
0.5
 40
0.5
 40
0.5
 40
0.5
 40
1.0
 40
1.0
 40
1.0
 40
1.0
 10
-2.574
 20
-9.0881
 30
0.0
 10
-2.574
 20
-9.0881
 30
0.0
 10
-2.568
 20
-9.0817
 30
0.0
 10
-2.568
 20
-9.0817
 30
0.0
 10
-2.568
 20
-9.0817
 30
0.0
 10
-2.568
 20
-9.0817
 30
0.0
 10
-2.5643
 20
-9.0647
 30
0.0
 10
-2.5643
 20
-9.0647
 30
0.0
 10
-2.5643
 20
-9.0647
 30
0.0
 10
-2.5643
 20
-9.0647
 30
0.0
 10
-2.5645
 20
-9.0441
 30
0.0
 10
-2.5645
 20
-9.0441
 30
0.0
  0
SPLINE
  5
11D
330
1F
100
AcDbEntity
  8
AXIS
 62
   250
100
AcDbSpline
210
0.0
220
0.0
230
1.0
 70
     8
 71
     3
 72
    16
 73
    12
 74
     0
 42
0.0000000001
 43
0.0000000001
 40
0.0
 40
0.0
 40
0.0
 40
0.0
 40
0.25
 40
0.25
 40
0.25
 40
0.25
 40
0.5
 40
0.5
 40
0.5
 40
0.5
 40
1.0
 40
1.0
 40
1.0
 40
1.0
 10
-4.8773
 20
-9.0881
 30
0.0
 10
-4.8773
 20
-9.0881
 30
0.0
 10
-4.878
 20
-9.0817
 30
0.0
 10
-4.878
 20
-9.0817
 30
0.0
 10
-4.878
 20
-9.0817
 30
0.0
 10
-4.878
 20
-9.0817
 30
0.0
 10
-4.8784
 20
-9.0647
 30
0.0
 10
-4.8784
 20
-9.0647
 30
0.0
 10
-4.8784
 20
-9.0647
 30
0.0
 10
-4.8784
 20
-9.0647
 30
0.0
 10
-4.8783
 20
-9.0441
 30
0.0
 10
-4.8783
 20
-9.0441
 30
0.0
  0
SPLINE
  5
11E
330
1F
100
AcDbEntity
  8
AXIS
 62
   250
100
AcDbSpline
210
0.0
220
0.0
230
1.0
 70
    11
 71
     3
 72
    52
 73
    48
 74
     0
 42
0.0000000001
 43
0.0000000001
 40
0.0
 40
0.0
 40
0.0
 40
0.0
 40
0.0769230769230769
 40
0.0769230769230769
 40
0.0769230769230769
 40
0.0769230769230769
 40
0.1538461538461539
 40
0.1538461538461539
 40
0.1538461538461539
 40
0.1538461538461539
 40
0.2307692307692308
 40
0.2307692307692308
 40
0.2307692307692308
 40
0.2307692307692308
 40
0.3076923076923077
 40
0.3076923076923077
 40
0.3076923076923077
 40
0.3076923076923077
 40
0.3846153846153846
 40
0.3846153846153846
 40
0.3846153846153846
 40
0.3846153846153846
 40
0.4615384615384616
 40
0.4615384615384616
 40
0.4615384615384616
 40
0.4615384615384616
 40
0.5384615384615384
 40
0.5384615384615384
 40
0.5384615384615384
 40
0.5384615384615384
 40
0.6153846153846154
 40
0.6153846153846154
 40
0.6153846153846154
 40
0.6153846153846154
 40
0.6923076923076923
 40
0.6923076923076923
 40
0.6923076923076923
 40
0.6923076923076923
 40
0.7692307692307693
 40
0.7692307692307693
 40
0.7692307692307693
 40
0.7692307692307693
 40
0.8461538461538461
 40
0.8461538461538461
 40
0.8461538461538461
 40
0.8461538461538461
 40
1.0
 40
1.0
 40
1.0
 40
1.0
 10
-2.7911
 20
-0.1667
 30
0.0
 10
-2.7911
 20
-0.1667
 30
0.0
 10
-3.184
 20
-0.0938
 30
0.0
 10
-3.184
 20
-0.0938
 30
0.0
 10
-3.184
 20
-0.0938
 30
0.0
 10
-3.184
 20
-0.0938
 30
0.0
 10
-3.5863
 20
-0.0575
 30
0.0
 10
-3.5863
 20
-0.0575
 30
0.0
 10
-3.5863
 20
-0.0575
 30
0.0
 10
-3.5863
 20
-0.0575
 30
0.0
 10
-3.9915
 20
-0.0575
 30
0.0
 10
-3.9915
 20
-0.0575
 30
0.0
 10
-3.9915
 20
-0.0575
 30
0.0
 10
-3.9915
 20
-0.0575
 30
0.0
 10
-4.3937
 20
-0.0938
 30
0.0
 10
-4.3937
 20
-0.0938
 30
0.0
 10
-4.3937
 20
-0.0938
 30
0.0
 10
-4.3937
 20
-0.0938
 30
0.0
 10
-4.7866
 20
-0.1667
 30
0.0
 10
-4.7866
 20
-0.1667
 30
0.0
 10
-4.7866
 20
-0.1667
 30
0.0
 10
-4.7866
 20
-0.1667
 30
0.0
 10
-4.7773
 20
-0.5825
 30
0.0
 10
-4.7773
 20
-0.5825
 30
0.0
 10
-4.7773
 20
-0.5825
 30
0.0
 10
-4.7773
 20
-0.5825
 30
0.0
 10
-4.4829
 20
-0.6657
 30
0.0
 10
-4.4829
 20
-0.6657
 30
0.0
 10
-4.4829
 20
-0.6657
 30
0.0
 10
-4.4829
 20
-0.6657
 30
0.0
 10
-4.0541
 20
-0.7105
 30
0.0
 10
-4.0541
 20
-0.7105
 30
0.0
 10
-4.0541
 20
-0.7105
 30
0.0
 10
-4.0541
 20
-0.7105
 30
0.0
 10
-3.5997
 20
-0.7233
 30
0.0
 10
-3.5997
 20
-0.7233
 30
0.0
 10
-3.5997
 20
-0.7233
 30
0.0
 10
-3.5997
 20
-0.7233
 30
0.0
 10
-3.2221
 20
-0.6785
 30
0.0
 10
-3.2221
 20
-0.6785
 30
0.0
 10
-3.2221
 20
-0.6785
 30
0.0
 10
-3.2221
 20
-0.6785
 30
0.0
 10
-2.7741
 20
-0.5761
 30
0.0
 10
-2.7741
 20
-0.5761
 30
0.0
 10
-2.7741
 20
-0.5761
 30
0.0
 10
-2.7741
 20
-0.5761
 30
0.0
 10
-2.7911
 20
-0.1667
 30
0.0
 10
-2.7911
 20
-0.1667
 30
0.0
  0
SPLINE
  5
11F
330
1F
100
AcDbEntity
  8
AXIS
 62
   250
100
AcDbSpline
210
0.0
220
0.0
230
1.0
 70
     8
 71
     3
 72
    32
 73
    28
 74
     0
 42
0.0000000001
 43
0.0000000001
 40
0.0
 40
0.0
 40
0.0
 40
0.0
 40
0.125
 40
0.125
 40
0.125
 40
0.125
 40
0.25
 40
0.25
 40
0.25
 40
0.25
 40
0.375
 40
0.375
 40
0.375
 40
0.375
 40
0.5
 40
0.5
 40
0.5
 40
0.5
 40
0.625
 40
0.625
 40
0.625
 40
0.625
 40
0.75
 40
0.75
 40
0.75
 40
0.75
 40
1.0
 40
1.0
 40
1.0
 40
1.0
 10
-4.7901
 20
-1.2609
 30
0.0
 10
-4.7901
 20
-1.2609
 30
0.0
 10
-4.7866
 20
-0.9873
 30
0.0
 10
-4.7866
 20
-0.9873
 30
0.0
 10
-4.7866
 20
-0.9873
 30
0.0
 10
-4.7866
 20
-0.9873
 30
0.0
 10
-4.3937
 20
-0.9144
 30
0.0
 10
-4.3937
 20
-0.9144
 30
0.0
 10
-4.3937
 20
-0.9144
 30
0.0
 10
-4.3937
 20
-0.9144
 30
0.0
 10
-3.9915
 20
-0.8781
 30
0.0
 10
-3.9915
 20
-0.8781
 30
0.0
 10
-3.9915
 20
-0.8781
 30
0.0
 10
-3.9915
 20
-0.8781
 30
0.0
 10
-3.5863
 20
-0.8781
 30
0.0
 10
-3.5863
 20
-0.8781
 30
0.0
 10
-3.5863
 20
-0.8781
 30
0.0
 10
-3.5863
 20
-0.8781
 30
0.0
 10
-3.184
 20
-0.9144
 30
0.0
 10
-3.184
 20
-0.9144
 30
0.0
 10
-3.184
 20
-0.9144
 30
0.0
 10
-3.184
 20
-0.9144
 30
0.0
 10
-2.7911
 20
-0.9873
 30
0.0
 10
-2.7911
 20
-0.9873
 30
0.0
 10
-2.7911
 20
-0.9873
 30
0.0
 10
-2.7911
 20
-0.9873
 30
0.0
 10
-2.7933
 20
-1.2801
 30
0.0
 10
-2.7933
 20
-1.2801
 30
0.0
  0
SPLINE
  5
120
330
1F
100
AcDbEntity
  8
AXIS
 62
   250
100
AcDbSpline
210
0.0
220
0.0
230
1.0
 70
     8
 71
     3
 72
    24
 73
    20
 74
     0
 42
0.0000000001
 43
0.0000000001
 40
0.0
 40
0.0
 40
0.0
 40
0.0
 40
0.1666666666666667
 40
0.1666666666666667
 40
0.1666666666666667
 40
0.1666666666666667
 40
0.3333333333333333
 40
0.3333333333333333
 40
0.3333333333333333
 40
0.3333333333333333
 40
0.5
 40
0.5
 40
0.5
 40
0.5
 40
0.6666666666666666
 40
0.6666666666666666
 40
0.6666666666666666
 40
0.6666666666666666
 40
1.0
 40
1.0
 40
1.0
 40
1.0
 10
-2.7911
 20
-7.1418
 30
0.0
 10
-2.7911
 20
-7.1418
 30
0.0
 10
-3.184
 20
-7.2148
 30
0.0
 10
-3.184
 20
-7.2148
 30
0.0
 10
-3.184
 20
-7.2148
 30
0.0
 10
-3.184
 20
-7.2148
 30
0.0
 10
-3.5863
 20
-7.251
 30
0.0
 10
-3.5863
 20
-7.251
 30
0.0
 10
-3.5863
 20
-7.251
 30
0.0
 10
-3.5863
 20
-7.251
 30
0.0
 10
-3.9915
 20
-7.251
 30
0.0
 10
-3.9915
 20
-7.251
 30
0.0
 10
-3.9915
 20
-7.251
 30
0.0
 10
-3.9915
 20
-7.251
 30
0.0
 10
-4.3937
 20
-7.2148
 30
0.0
 10
-4.3937
 20
-7.2148
 30
0.0
 10
-4.3937
 20
-7.2148
 30
0.0
 10
-4.3937
 20
-7.2148
 30
0.0
 10
-4.7866
 20
-7.1418
 30
0.0
 10
-4.7866
 20
-7.1418
 30
0.0
  0
SPLINE
  5
121
330
1F
100
AcDbEntity
  8
AXIS
 62
   250
100
AcDbSpline
210
0.0
220
0.0
230
1.0
 70
    24
 71
     3
 72
     8
 73
     4
 74
     0
 42
0.0000000001
 43
0.0000000001
 40
0.0
 40
0.0
 40
0.0
 40
0.0
 40
1.0
 40
1.0
 40
1.0
 40
1.0
 10
-10.5206
 20
-8.2906
 30
0.0
 10
-10.5206
 20
-8.2906
 30
0.0
 10
-5.3038
 20
-8.2906
 30
0.0
 10
-5.3038
 20
-8.2906
 30
0.0
  0
SPLINE
  5
122
330
1F
100
AcDbEntity
  8
AXIS
 62
   250
100
AcDbSpline
210
0.0
220
0.0
230
1.0
 70
    24
 71
     3
 72
     8
 73
     4
 74
     0
 42
0.0000000001
 43
0.0000000001
 40
0.0
 40
0.0
 40
0.0
 40
0.0
 40
1.0
 40
1.0
 40
1.0
 40
1.0
 10
-1.3294
 20
-8.2906
 30
0.0
 10
-1.3294
 20
-8.2906
 30
0.0
 10
2.943
 20
-8.2906
 30
0.0
 10
2.943
 20
-8.2906
 30
0.0
  0
SPLINE
  5
123
330
1F
100
AcDbEntity
  8
AXIS
 62
   250
100
AcDbSpline
210
0.0
220
0.0
230
1.0
 70
    24
 71
     3
 72
     8
 73
     4
 74
     0
 42
0.0000000001
 43
0.0000000001
 40
0.0
 40
0.0
 40
0.0
 40
0.0
 40
1.0
 40
1.0
 40
1.0
 40
1.0
 10
-6.5319
 20
-7.9624
 30
0.0
 10
-6.5319
 20
-7.9624
 30
0.0
 10
-7.0287
 20
-7.9624
 30
0.0
 10
-7.0287
 20
-7.9624
 30
0.0
  0
SPLINE
  5
124
330
1F
100
AcDbEntity
  8
AXIS
 62
   250
100
AcDbSpline
210
0.0
220
0.0
230
1.0
 70
    24
 71
     3
 72
     8
 73
     4
 74
     0
 42
0.0000000001
 43
0.0000000001
 40
0.0
 40
0.0
 40
0.0
 40
0.0
 40
1.0
 40
1.0
 40
1.0
 40
1.0
 10
-6.9858
 20
-7.9623
 30
0.0
 10
-6.9858
 20
-7.9623
 30
0.0
 10
-7.3012
 20
-6.205
 30
0.0
 10
-7.3012
 20
-6.205
 30
0.0
  0
SPLINE
  5
125
330
1F
100
AcDbEntity
  8
AXIS
 62
   250
100
AcDbSpline
210
0.0
220
0.0
230
1.0
 70
    24
 71
     3
 72
     8
 73
     4
 74
     0
 42
0.0000000001
 43
0.0000000001
 40
0.0
 40
0.0
 40
0.0
 40
0.0
 40
1.0
 40
1.0
 40
1.0
 40
1.0
 10
-9.0398
 20
-8.2766
 30
0.0
 10
-9.0398
 20
-8.2766
 30
0.0
 10
-8.6609
 20
-6.1653
 30
0.0
 10
-8.6609
 20
-6.1653
 30
0.0
  0
SPLINE
  5
126
330
1F
100
AcDbEntity
  8
AXIS
 62
   250
100
AcDbSpline
210
0.0
220
0.0
230
1.0
 70
    24
 71
     3
 72
     8
 73
     4
 74
     0
 42
0.0000000001
 43
0.0000000001
 40
0.0
 40
0.0
 40
0.0
 40
0.0
 40
1.0
 40
1.0
 40
1.0
 40
1.0
 10
1.5468
 20
-1.3155
 30
0.0
 10
1.5468
 20
-1.3155
 30
0.0
 10
-9.1246
 20
-1.3155
 30
0.0
 10
-9.1246
 20
-1.3155
 30
0.0
  0
SPLINE
  5
127
330
1F
100
AcDbEntity
  8
AXIS
 62
   250
100
AcDbSpline
210
0.0
220
0.0
230
1.0
 70
    24
 71
     3
 72
     8
 73
     4
 74
     0
 42
0.0000000001
 43
0.0000000001
 40
0.0
 40
0.0
 40
0.0
 40
0.0
 40
1.0
 40
1.0
 40
1.0
 40
1.0
 10
-1.0541
 20
-8.3316
 30
0.0
 10
-1.0541
 20
-8.3316
 30
0.0
 10
-1.0554
 20
-7.9525
 30
0.0
 10
-1.0554
 20
-7.9525
 30
0.0
  0
SPLINE
  5
128
330
1F
100
AcDbEntity
  8
AXIS
 62
   250
100
AcDbSpline
210
0.0
220
0.0
230
1.0
 70
    24
 71
     3
 72
     8
 73
     4
 74
     0
 42
0.0000000001
 43
0.0000000001
 40
0.0
 40
0.0
 40
0.0
 40
0.0
 40
1.0
 40
1.0
 40
1.0
 40
1.0
 10
-0.0754
 20
-6.2538
 30
0.0
 10
-0.0754
 20
-6.2538
 30
0.0
 10
-0.3655
 20
-7.9624
 30
0.0
 10
-0.3655
 20
-7.9624
 30
0.0
  0
SPLINE
  5
129
330
1F
100
AcDbEntity
  8
AXIS
 62
   250
100
AcDbSpline
210
0.0
220
0.0
230
1.0
 70
    24
 71
     3
 72
     8
 73
     4
 74
     0
 42
0.0000000001
 43
0.0000000001
 40
0.0
 40
0.0
 40
0.0
 40
0.0
 40
1.0
 40
1.0
 40
1.0
 40
1.0
 10
1.6725
 20
-8.2905
 30
0.0
 10
1.6725
 20
-8.2905
 30
0.0
 10
1.2968
 20
-6.1976
 30
0.0
 10
1.2968
 20
-6.1976
 30
0.0
  0
SPLINE
  5
12A
330
1F
100
AcDbEntity
  8
AXIS
 62
   250
100
AcDbSpline
210
0.0
220
0.0
230
1.0
 70
     8
 71
     3
 72
     8
 73
     4
 74
     0
 42
0.0000000001
 43
0.0000000001
 40
0.0
 40
0.0
 40
0.0
 40
0.0
 40
1.0
 40
1.0
 40
1.0
 40
1.0
 10
-9.1246
 20
-1.3155
 30
0.0
 10
-9.3036
 20
-1.3155
 30
0.0
 10
-9.4496
 20
-1.4591
 30
0.0
 10
-9.4528
 20
-1.6381
 30
0.0
  0
SPLINE
  5
12B
330
1F
100
AcDbEntity
  8
AXIS
 62
   250
100
AcDbSpline
210
0.0
220
0.0
230
1.0
 70
     8
 71
     3
 72
     8
 73
     4
 74
     0
 42
0.0000000001
 43
0.0000000001
 40
0.0
 40
0.0
 40
0.0
 40
0.0
 40
1.0
 40
1.0
 40
1.0
 40
1.0
 10
-10.5206
 20
-8.2906
 30
0.0
 10
-10.6102
 20
-8.2906
 30
0.0
 10
-10.6832
 20
-8.3624
 30
0.0
 10
-10.6847
 20
-8.4519
 30
0.0
  0
SPLINE
  5
12C
330
1F
100
AcDbEntity
  8
AXIS
 62
   250
100
AcDbSpline
210
0.0
220
0.0
230
1.0
 70
     8
 71
     3
 72
     8
 73
     4
 74
     0
 42
0.0000000001
 43
0.0000000001
 40
0.0
 40
0.0
 40
0.0
 40
0.0
 40
1.0
 40
1.0
 40
1.0
 40
1.0
 10
1.875
 20
-1.6381
 30
0.0
 10
1.8719
 20
-1.4591
 30
0.0
 10
1.7259
 20
-1.3155
 30
0.0
 10
1.5468
 20
-1.3155
 30
0.0
  0
SPLINE
  5
12D
330
1F
100
AcDbEntity
  8
AXIS
 62
   250
100
AcDbSpline
210
0.0
220
0.0
230
1.0
 70
     8
 71
     3
 72
     8
 73
     4
 74
     0
 42
0.0000000001
 43
0.0000000001
 40
0.0
 40
0.0
 40
0.0
 40
0.0
 40
1.0
 40
1.0
 40
1.0
 40
1.0
 10
3.107
 20
-8.4519
 30
0.0
 10
3.1054
 20
-8.3624
 30
0.0
 10
3.0324
 20
-8.2906
 30
0.0
 10
2.9429
 20
-8.2906
 30
0.0
  0
SPLINE
  5
12E
330
1F
100
AcDbEntity
  8
AXIS
 62
   250
100
AcDbSpline
210
0.0
220
0.0
230
1.0
 70
    24
 71
     3
 72
     8
 73
     4
 74
     0
 42
0.0000000001
 43
0.0000000001
 40
0.0
 40
0.0
 40
0.0
 40
0.0
 40
1.0
 40
1.0
 40
1.0
 40
1.0
 10
-9.4528
 20
-1.6381
 30
0.0
 10
-9.4528
 20
-1.6381
 30
0.0
 10
-9.5331
 20
-6.2391
 30
0.0
 10
-9.5331
 20
-6.2391
 30
0.0
  0
SPLINE
  5
12F
330
1F
100
AcDbEntity
  8
AXIS
 62
   250
100
AcDbSpline
210
0.0
220
0.0
230
1.0
 70
    24
 71
     3
 72
     8
 73
     4
 74
     0
 42
0.0000000001
 43
0.0000000001
 40
0.0
 40
0.0
 40
0.0
 40
0.0
 40
1.0
 40
1.0
 40
1.0
 40
1.0
 10
-9.5331
 20
-6.2391
 30
0.0
 10
-9.5331
 20
-6.2391
 30
0.0
 10
1.9553
 20
-6.2391
 30
0.0
 10
1.9553
 20
-6.2391
 30
0.0
  0
SPLINE
  5
130
330
1F
100
AcDbEntity
  8
AXIS
 62
   250
100
AcDbSpline
210
0.0
220
0.0
230
1.0
 70
     8
 71
     3
 72
    32
 73
    28
 74
     0
 42
0.0000000001
 43
0.0000000001
 40
0.0
 40
0.0
 40
0.0
 40
0.0
 40
0.125
 40
0.125
 40
0.125
 40
0.125
 40
0.25
 40
0.25
 40
0.25
 40
0.25
 40
0.375
 40
0.375
 40
0.375
 40
0.375
 40
0.5
 40
0.5
 40
0.5
 40
0.5
 40
0.625
 40
0.625
 40
0.625
 40
0.625
 40
0.75
 40
0.75
 40
0.75
 40
0.75
 40
1.0
 40
1.0
 40
1.0
 40
1.0
 10
-6.4135
 20
15.4466
 30
0.0
 10
-6.4135
 20
15.4466
 30
0.0
 10
-6.4135
 20
0.0314
 30
0.0
 10
-6.4135
 20
0.0314
 30
0.0
 10
-6.4135
 20
0.0314
 30
0.0
 10
-6.4135
 20
0.0314
 30
0.0
 10
-6.2003
 20
-0.1078
 30
0.0
 10
-6.2003
 20
-0.1078
 30
0.0
 10
-6.2003
 20
-0.1078
 30
0.0
 10
-6.2003
 20
-0.1078
 30
0.0
 10
-6.189
 20
-0.5045
 30
0.0
 10
-6.189
 20
-0.5045
 30
0.0
 10
-6.189
 20
-0.5045
 30
0.0
 10
-6.189
 20
-0.5045
 30
0.0
 10
-6.4322
 20
-0.6463
 30
0.0
 10
-6.4322
 20
-0.6463
 30
0.0
 10
-6.4322
 20
-0.6463
 30
0.0
 10
-6.4322
 20
-0.6463
 30
0.0
 10
-6.4152
 20
-0.8163
 30
0.0
 10
-6.4152
 20
-0.8163
 30
0.0
 10
-6.4152
 20
-0.8163
 30
0.0
 10
-6.4152
 20
-0.8163
 30
0.0
 10
-6.2286
 20
-0.9466
 30
0.0
 10
-6.2286
 20
-0.9466
 30
0.0
 10
-6.2286
 20
-0.9466
 30
0.0
 10
-6.2286
 20
-0.9466
 30
0.0
 10
-6.2286
 20
-1.213
 30
0.0
 10
-6.2286
 20
-1.213
 30
0.0
  0
SPLINE
  5
131
330
1F
100
AcDbEntity
  8
AXIS
 62
   250
100
AcDbSpline
210
0.0
220
0.0
230
1.0
 70
     8
 71
     3
 72
    24
 73
    20
 74
     0
 42
0.0000000001
 43
0.0000000001
 40
0.0
 40
0.0
 40
0.0
 40
0.0
 40
0.1666666666666667
 40
0.1666666666666667
 40
0.1666666666666667
 40
0.1666666666666667
 40
0.3333333333333333
 40
0.3333333333333333
 40
0.3333333333333333
 40
0.3333333333333333
 40
0.5
 40
0.5
 40
0.5
 40
0.5
 40
0.6666666666666666
 40
0.6666666666666666
 40
0.6666666666666666
 40
0.6666666666666666
 40
1.0
 40
1.0
 40
1.0
 40
1.0
 10
-6.4148
 20
-7.9624
 30
0.0
 10
-6.4148
 20
-7.9624
 30
0.0
 10
-6.4148
 20
-7.2555
 30
0.0
 10
-6.4148
 20
-7.2555
 30
0.0
 10
-6.4148
 20
-7.2555
 30
0.0
 10
-6.4148
 20
-7.2555
 30
0.0
 10
-6.2089
 20
-7.1391
 30
0.0
 10
-6.2089
 20
-7.1391
 30
0.0
 10
-6.2089
 20
-7.1391
 30
0.0
 10
-6.2089
 20
-7.1391
 30
0.0
 10
-6.2089
 20
-6.7137
 30
0.0
 10
-6.2089
 20
-6.7137
 30
0.0
 10
-6.2089
 20
-6.7137
 30
0.0
 10
-6.2089
 20
-6.7137
 30
0.0
 10
-6.5794
 20
-6.559
 30
0.0
 10
-6.5794
 20
-6.559
 30
0.0
 10
-6.5794
 20
-6.559
 30
0.0
 10
-6.5794
 20
-6.559
 30
0.0
 10
-6.5871
 20
-6.1955
 30
0.0
 10
-6.5871
 20
-6.1955
 30
0.0
  0
SPLINE
  5
132
330
1F
100
AcDbEntity
  8
AXIS
 62
   250
100
AcDbSpline
210
0.0
220
0.0
230
1.0
 70
    24
 71
     3
 72
     8
 73
     4
 74
     0
 42
0.0000000001
 43
0.0000000001
 40
0.0
 40
0.0
 40
0.0
 40
0.0
 40
1.0
 40
1.0
 40
1.0
 40
1.0
 10
1.875
 20
-1.6381
 30
0.0
 10
1.875
 20
-1.6381
 30
0.0
 10
1.9553
 20
-6.2391
 30
0.0
 10
1.9553
 20
-6.2391
 30
0.0
  0
SPLINE
  5
133
330
1F
100
AcDbEntity
  8
AXIS
 62
   250
100
AcDbSpline
210
0.0
220
0.0
230
1.0
 70
     8
 71
     3
 72
    32
 73
    28
 74
     0
 42
0.0000000001
 43
0.0000000001
 40
0.0
 40
0.0
 40
0.0
 40
0.0
 40
0.125
 40
0.125
 40
0.125
 40
0.125
 40
0.25
 40
0.25
 40
0.25
 40
0.25
 40
0.375
 40
0.375
 40
0.375
 40
0.375
 40
0.5
 40
0.5
 40
0.5
 40
0.5
 40
0.625
 40
0.625
 40
0.625
 40
0.625
 40
0.75
 40
0.75
 40
0.75
 40
0.75
 40
1.0
 40
1.0
 40
1.0
 40
1.0
 10
-1.1811
 20
15.6237
 30
0.0
 10
-1.1811
 20
15.6237
 30
0.0
 10
-1.1811
 20
0.0446
 30
0.0
 10
-1.1811
 20
0.0446
 30
0.0
 10
-1.1811
 20
0.0446
 30
0.0
 10
-1.1811
 20
0.0446
 30
0.0
 10
-1.3802
 20
-0.0961
 30
0.0
 10
-1.3802
 20
-0.0961
 30
0.0
 10
-1.3802
 20
-0.0961
 30
0.0
 10
-1.3802
 20
-0.0961
 30
0.0
 10
-1.3907
 20
-0.497
 30
0.0
 10
-1.3907
 20
-0.497
 30
0.0
 10
-1.3907
 20
-0.497
 30
0.0
 10
-1.3907
 20
-0.497
 30
0.0
 10
-1.1637
 20
-0.6402
 30
0.0
 10
-1.1637
 20
-0.6402
 30
0.0
 10
-1.1637
 20
-0.6402
 30
0.0
 10
-1.1637
 20
-0.6402
 30
0.0
 10
-1.1795
 20
-0.8121
 30
0.0
 10
-1.1795
 20
-0.8121
 30
0.0
 10
-1.1795
 20
-0.8121
 30
0.0
 10
-1.1795
 20
-0.8121
 30
0.0
 10
-1.3537
 20
-0.9438
 30
0.0
 10
-1.3537
 20
-0.9438
 30
0.0
 10
-1.3537
 20
-0.9438
 30
0.0
 10
-1.3537
 20
-0.9438
 30
0.0
 10
-1.3537
 20
-1.213
 30
0.0
 10
-1.3537
 20
-1.213
 30
0.0
  0
SPLINE
  5
134
330
1F
100
AcDbEntity
  8
AXIS
 62
   250
100
AcDbSpline
210
0.0
220
0.0
230
1.0
 70
    11
 71
     3
 72
   100
 73
    96
 74
     0
 42
0.0000000001
 43
0.0000000001
 40
0.0
 40
0.0
 40
0.0
 40
0.0
 40
0.04
 40
0.04
 40
0.04
 40
0.04
 40
0.08
 40
0.08
 40
0.08
 40
0.08
 40
0.12
 40
0.12
 40
0.12
 40
0.12
 40
0.16
 40
0.16
 40
0.16
 40
0.16
 40
0.2
 40
0.2
 40
0.2
 40
0.2
 40
0.24
 40
0.24
 40
0.24
 40
0.24
 40
0.28
 40
0.28
 40
0.28
 40
0.28
 40
0.32
 40
0.32
 40
0.32
 40
0.32
 40
0.36
 40
0.36
 40
0.36
 40
0.36
 40
0.4
 40
0.4
 40
0.4
 40
0.4
 40
0.44
 40
0.44
 40
0.44
 40
0.44
 40
0.48
 40
0.48
 40
0.48
 40
0.48
 40
0.52
 40
0.52
 40
0.52
 40
0.52
 40
0.56
 40
0.56
 40
0.56
 40
0.56
 40
0.6
 40
0.6
 40
0.6
 40
0.6
 40
0.64
 40
0.64
 40
0.64
 40
0.64
 40
0.68
 40
0.68
 40
0.68
 40
0.68
 40
0.72
 40
0.72
 40
0.72
 40
0.72
 40
0.76
 40
0.76
 40
0.76
 40
0.76
 40
0.8
 40
0.8
 40
0.8
 40
0.8
 40
0.84
 40
0.84
 40
0.84
 40
0.84
 40
0.88
 40
0.88
 40
0.88
 40
0.88
 40
0.92
 40
0.92
 40
0.92
 40
0.92
 40
1.0
 40
1.0
 40
1.0
 40
1.0
 10
0.6061
 20
-6.3576
 30
0.0
 10
0.6061
 20
-6.3576
 30
0.0
 10
0.5002
 20
-6.3755
 30
0.0
 10
0.5002
 20
-6.3755
 30
0.0
 10
0.5002
 20
-6.3755
 30
0.0
 10
0.5002
 20
-6.3755
 30
0.0
 10
0.3987
 20
-6.4107
 30
0.0
 10
0.3987
 20
-6.4107
 30
0.0
 10
0.3987
 20
-6.4107
 30
0.0
 10
0.3987
 20
-6.4107
 30
0.0
 10
0.3042
 20
-6.4623
 30
0.0
 10
0.3042
 20
-6.4623
 30
0.0
 10
0.3042
 20
-6.4623
 30
0.0
 10
0.3042
 20
-6.4623
 30
0.0
 10
0.2195
 20
-6.5289
 30
0.0
 10
0.2195
 20
-6.5289
 30
0.0
 10
0.2195
 20
-6.5289
 30
0.0
 10
0.2195
 20
-6.5289
 30
0.0
 10
0.1468
 20
-6.6087
 30
0.0
 10
0.1468
 20
-6.6087
 30
0.0
 10
0.1468
 20
-6.6087
 30
0.0
 10
0.1468
 20
-6.6087
 30
0.0
 10
0.088
 20
-6.6994
 30
0.0
 10
0.088
 20
-6.6994
 30
0.0
 10
0.088
 20
-6.6994
 30
0.0
 10
0.088
 20
-6.6994
 30
0.0
 10
0.0449
 20
-6.7987
 30
0.0
 10
0.0449
 20
-6.7987
 30
0.0
 10
0.0449
 20
-6.7987
 30
0.0
 10
0.0449
 20
-6.7987
 30
0.0
 10
0.0185
 20
-6.9038
 30
0.0
 10
0.0185
 20
-6.9038
 30
0.0
 10
0.0185
 20
-6.9038
 30
0.0
 10
0.0185
 20
-6.9038
 30
0.0
 10
0.0097
 20
-7.0119
 30
0.0
 10
0.0097
 20
-7.0119
 30
0.0
 10
0.0097
 20
-7.0119
 30
0.0
 10
0.0097
 20
-7.0119
 30
0.0
 10
0.0159
 20
-7.157
 30
0.0
 10
0.0159
 20
-7.157
 30
0.0
 10
0.0159
 20
-7.157
 30
0.0
 10
0.0159
 20
-7.157
 30
0.0
 10
0.1179
 20
-7.3865
 30
0.0
 10
0.1179
 20
-7.3865
 30
0.0
 10
0.1179
 20
-7.3865
 30
0.0
 10
0.1179
 20
-7.3865
 30
0.0
 10
0.2539
 20
-7.548
 30
0.0
 10
0.2539
 20
-7.548
 30
0.0
 10
0.2539
 20
-7.548
 30
0.0
 10
0.2539
 20
-7.548
 30
0.0
 10
0.4579
 20
-7.6415
 30
0.0
 10
0.4579
 20
-7.6415
 30
0.0
 10
0.4579
 20
-7.6415
 30
0.0
 10
0.4579
 20
-7.6415
 30
0.0
 10
0.6364
 20
-7.667
 30
0.0
 10
0.6364
 20
-7.667
 30
0.0
 10
0.6364
 20
-7.667
 30
0.0
 10
0.6364
 20
-7.667
 30
0.0
 10
0.8744
 20
-7.6415
 30
0.0
 10
0.8744
 20
-7.6415
 30
0.0
 10
0.8744
 20
-7.6415
 30
0.0
 10
0.8744
 20
-7.6415
 30
0.0
 10
1.0869
 20
-7.5055
 30
0.0
 10
1.0869
 20
-7.5055
 30
0.0
 10
1.0869
 20
-7.5055
 30
0.0
 10
1.0869
 20
-7.5055
 30
0.0
 10
1.2144
 20
-7.3865
 30
0.0
 10
1.2144
 20
-7.3865
 30
0.0
 10
1.2144
 20
-7.3865
 30
0.0
 10
1.2144
 20
-7.3865
 30
0.0
 10
1.2654
 20
-7.2165
 30
0.0
 10
1.2654
 20
-7.2165
 30
0.0
 10
1.2654
 20
-7.2165
 30
0.0
 10
1.2654
 20
-7.2165
 30
0.0
 10
1.2739
 20
-6.919
 30
0.0
 10
1.2739
 20
-6.919
 30
0.0
 10
1.2739
 20
-6.919
 30
0.0
 10
1.2739
 20
-6.919
 30
0.0
 10
1.2059
 20
-6.647
 30
0.0
 10
1.2059
 20
-6.647
 30
0.0
 10
1.2059
 20
-6.647
 30
0.0
 10
1.2059
 20
-6.647
 30
0.0
 10
1.0869
 20
-6.4855
 30
0.0
 10
1.0869
 20
-6.4855
 30
0.0
 10
1.0869
 20
-6.4855
 30
0.0
 10
1.0869
 20
-6.4855
 30
0.0
 10
0.8064
 20
-6.375
 30
0.0
 10
0.8064
 20
-6.375
 30
0.0
 10
0.8064
 20
-6.375
 30
0.0
 10
0.8064
 20
-6.375
 30
0.0
 10
0.6598
 20
-6.3554
 30
0.0
 10
0.6598
 20
-6.3554
 30
0.0
 10
0.6598
 20
-6.3554
 30
0.0
 10
0.6598
 20
-6.3554
 30
0.0
 10
0.6061
 20
-6.3576
 30
0.0
 10
0.6061
 20
-6.3576
 30
0.0
  0
SPLINE
  5
135
330
1F
100
AcDbEntity
  8
AXIS
 62
   250
100
AcDbSpline
210
0.0
220
0.0
230
1.0
 70
     8
 71
     3
 72
    24
 73
    20
 74
     0
 42
0.0000000001
 43
0.0000000001
 40
0.0
 40
0.0
 40
0.0
 40
0.0
 40
0.1666666666666667
 40
0.1666666666666667
 40
0.1666666666666667
 40
0.1666666666666667
 40
0.3333333333333333
 40
0.3333333333333333
 40
0.3333333333333333
 40
0.3333333333333333
 40
0.5
 40
0.5
 40
0.5
 40
0.5
 40
0.6666666666666666
 40
0.6666666666666666
 40
0.6666666666666666
 40
0.6666666666666666
 40
1.0
 40
1.0
 40
1.0
 40
1.0
 10
-1.1528
 20
-7.8635
 30
0.0
 10
-1.1528
 20
-7.8635
 30
0.0
 10
-1.1528
 20
-7.1566
 30
0.0
 10
-1.1528
 20
-7.1566
 30
0.0
 10
-1.1528
 20
-7.1566
 30
0.0
 10
-1.1528
 20
-7.1566
 30
0.0
 10
-1.3586
 20
-7.0402
 30
0.0
 10
-1.3586
 20
-7.0402
 30
0.0
 10
-1.3586
 20
-7.0402
 30
0.0
 10
-1.3586
 20
-7.0402
 30
0.0
 10
-1.3586
 20
-6.6148
 30
0.0
 10
-1.3586
 20
-6.6148
 30
0.0
 10
-1.3586
 20
-6.6148
 30
0.0
 10
-1.3586
 20
-6.6148
 30
0.0
 10
-0.9883
 20
-6.4601
 30
0.0
 10
-0.9883
 20
-6.4601
 30
0.0
 10
-0.9883
 20
-6.4601
 30
0.0
 10
-0.9883
 20
-6.4601
 30
0.0
 10
-0.9806
 20
-6.0966
 30
0.0
 10
-0.9806
 20
-6.0966
 30
0.0
  0
SPLINE
  5
136
330
1F
100
AcDbEntity
  8
AXIS
 62
   250
100
AcDbSpline
210
0.0
220
0.0
230
1.0
 70
    11
 71
     3
 72
    20
 73
    16
 74
     0
 42
0.0000000001
 43
0.0000000001
 40
0.0
 40
0.0
 40
0.0
 40
0.0
 40
0.2
 40
0.2
 40
0.2
 40
0.2
 40
0.4
 40
0.4
 40
0.4
 40
0.4
 40
0.6
 40
0.6
 40
0.6
 40
0.6
 40
1.0
 40
1.0
 40
1.0
 40
1.0
 10
-11.5241
 20
-37.2882
 30
0.0
 10
-11.5241
 20
-37.2882
 30
0.0
 10
-8.5281
 20
-37.711
 30
0.0
 10
-8.5281
 20
-37.711
 30
0.0
 10
-8.5281
 20
-37.711
 30
0.0
 10
-8.5281
 20
-37.711
 30
0.0
 10
-8.5281
 20
-37.8049
 30
0.0
 10
-8.5281
 20
-37.8049
 30
0.0
 10
-8.5281
 20
-37.8049
 30
0.0
 10
-8.5281
 20
-37.8049
 30
0.0
 10
-11.5241
 20
-38.2558
 30
0.0
 10
-11.5241
 20
-38.2558
 30
0.0
 10
-11.5241
 20
-38.2558
 30
0.0
 10
-11.5241
 20
-38.2558
 30
0.0
 10
-11.5241
 20
-37.2882
 30
0.0
 10
-11.5241
 20
-37.2882
 30
0.0
  0
SPLINE
  5
137
330
1F
100
AcDbEntity
  8
AXIS
 62
   250
100
AcDbSpline
210
0.0
220
0.0
230
1.0
 70
    11
 71
     3
 72
    20
 73
    16
 74
     0
 42
0.0000000001
 43
0.0000000001
 40
0.0
 40
0.0
 40
0.0
 40
0.0
 40
0.2
 40
0.2
 40
0.2
 40
0.2
 40
0.4
 40
0.4
 40
0.4
 40
0.4
 40
0.6
 40
0.6
 40
0.6
 40
0.6
 40
1.0
 40
1.0
 40
1.0
 40
1.0
 10
4.097
 20
-38.2491
 30
0.0
 10
4.097
 20
-38.2491
 30
0.0
 10
1.101
 20
-37.8263
 30
0.0
 10
1.101
 20
-37.8263
 30
0.0
 10
1.101
 20
-37.8263
 30
0.0
 10
1.101
 20
-37.8263
 30
0.0
 10
1.101
 20
-37.7324
 30
0.0
 10
1.101
 20
-37.7324
 30
0.0
 10
1.101
 20
-37.7324
 30
0.0
 10
1.101
 20
-37.7324
 30
0.0
 10
4.097
 20
-37.2815
 30
0.0
 10
4.097
 20
-37.2815
 30
0.0
 10
4.097
 20
-37.2815
 30
0.0
 10
4.097
 20
-37.2815
 30
0.0
 10
4.097
 20
-38.2491
 30
0.0
 10
4.097
 20
-38.2491
 30
0.0
  0
SPLINE
  5
138
330
1F
100
AcDbEntity
  8
AXIS
 62
   250
100
AcDbSpline
210
0.0
220
0.0
230
1.0
 70
    11
 71
     3
 72
    20
 73
    16
 74
     0
 42
0.0000000001
 43
0.0000000001
 40
0.0
 40
0.0
 40
0.0
 40
0.0
 40
0.2
 40
0.2
 40
0.2
 40
0.2
 40
0.4
 40
0.4
 40
0.4
 40
0.4
 40
0.6
 40
0.6
 40
0.6
 40
0.6
 40
1.0
 40
1.0
 40
1.0
 40
1.0
 10
-13.9101
 20
-17.807
 30
0.0
 10
-13.9101
 20
-17.807
 30
0.0
 10
-10.9141
 20
-18.2298
 30
0.0
 10
-10.9141
 20
-18.2298
 30
0.0
 10
-10.9141
 20
-18.2298
 30
0.0
 10
-10.9141
 20
-18.2298
 30
0.0
 10
-10.9141
 20
-18.3237
 30
0.0
 10
-10.9141
 20
-18.3237
 30
0.0
 10
-10.9141
 20
-18.3237
 30
0.0
 10
-10.9141
 20
-18.3237
 30
0.0
 10
-13.9101
 20
-18.7746
 30
0.0
 10
-13.9101
 20
-18.7746
 30
0.0
 10
-13.9101
 20
-18.7746
 30
0.0
 10
-13.9101
 20
-18.7746
 30
0.0
 10
-13.9101
 20
-17.807
 30
0.0
 10
-13.9101
 20
-17.807
 30
0.0
  0
SPLINE
  5
139
330
1F
100
AcDbEntity
  8
AXIS
 62
   250
100
AcDbSpline
210
0.0
220
0.0
230
1.0
 70
    11
 71
     3
 72
    84
 73
    80
 74
     0
 42
0.0000000001
 43
0.0000000001
 40
0.0
 40
0.0
 40
0.0
 40
0.0
 40
0.0476190476190476
 40
0.0476190476190476
 40
0.0476190476190476
 40
0.0476190476190476
 40
0.0952380952380952
 40
0.0952380952380952
 40
0.0952380952380952
 40
0.0952380952380952
 40
0.1428571428571428
 40
0.1428571428571428
 40
0.1428571428571428
 40
0.1428571428571428
 40
0.1904761904761905
 40
0.1904761904761905
 40
0.1904761904761905
 40
0.1904761904761905
 40
0.2380952380952381
 40
0.2380952380952381
 40
0.2380952380952381
 40
0.2380952380952381
 40
0.2857142857142857
 40
0.2857142857142857
 40
0.2857142857142857
 40
0.2857142857142857
 40
0.3333333333333333
 40
0.3333333333333333
 40
0.3333333333333333
 40
0.3333333333333333
 40
0.3809523809523809
 40
0.3809523809523809
 40
0.3809523809523809
 40
0.3809523809523809
 40
0.4285714285714285
 40
0.4285714285714285
 40
0.4285714285714285
 40
0.4285714285714285
 40
0.4761904761904762
 40
0.4761904761904762
 40
0.4761904761904762
 40
0.4761904761904762
 40
0.5238095238095238
 40
0.5238095238095238
 40
0.5238095238095238
 40
0.5238095238095238
 40
0.5714285714285714
 40
0.5714285714285714
 40
0.5714285714285714
 40
0.5714285714285714
 40
0.6190476190476191
 40
0.6190476190476191
 40
0.6190476190476191
 40
0.6190476190476191
 40
0.6666666666666666
 40
0.6666666666666666
 40
0.6666666666666666
 40
0.6666666666666666
 40
0.7142857142857143
 40
0.7142857142857143
 40
0.7142857142857143
 40
0.7142857142857143
 40
0.7619047619047619
 40
0.7619047619047619
 40
0.7619047619047619
 40
0.7619047619047619
 40
0.8095238095238095
 40
0.8095238095238095
 40
0.8095238095238095
 40
0.8095238095238095
 40
0.8571428571428571
 40
0.8571428571428571
 40
0.8571428571428571
 40
0.8571428571428571
 40
0.9047619047619048
 40
0.9047619047619048
 40
0.9047619047619048
 40
0.9047619047619048
 40
1.0
 40
1.0
 40
1.0
 40
1.0
 10
5.809
 20
-35.0845
 30
0.0
 10
5.809
 20
-35.0845
 30
0.0
 10
6.0404
 20
-34.8254
 30
0.0
 10
6.0404
 20
-34.8254
 30
0.0
 10
6.0404
 20
-34.8254
 30
0.0
 10
6.0404
 20
-34.8254
 30
0.0
 10
6.1768
 20
-34.9411
 30
0.0
 10
6.1768
 20
-34.9411
 30
0.0
 10
6.1768
 20
-34.9411
 30
0.0
 10
6.1768
 20
-34.9411
 30
0.0
 10
5.9346
 20
-35.2139
 30
0.0
 10
5.9346
 20
-35.2139
 30
0.0
 10
5.9346
 20
-35.2139
 30
0.0
 10
6.0136
 20
-35.3315
 30
0.0
 10
6.0667
 20
-35.4345
 30
0.0
 10
6.0945
 20
-35.5224
 30
0.0
 10
6.0945
 20
-35.5224
 30
0.0
 10
6.1312
 20
-35.6382
 30
0.0
 10
6.1495
 20
-35.768
 30
0.0
 10
6.1495
 20
-35.911
 30
0.0
 10
6.1495
 20
-35.911
 30
0.0
 10
6.1495
 20
-36.1179
 30
0.0
 10
6.1077
 20
-36.3023
 30
0.0
 10
6.0239
 20
-36.4636
 30
0.0
 10
6.0239
 20
-36.4636
 30
0.0
 10
5.9402
 20
-36.6255
 30
0.0
 10
5.8231
 20
-36.7477
 30
0.0
 10
5.6721
 20
-36.8305
 30
0.0
 10
5.6721
 20
-36.8305
 30
0.0
 10
5.5206
 20
-36.9128
 30
0.0
 10
5.3603
 20
-36.9542
 30
0.0
 10
5.1905
 20
-36.9542
 30
0.0
 10
5.1905
 20
-36.9542
 30
0.0
 10
5.0635
 20
-36.9542
 30
0.0
 10
4.9487
 20
-36.9364
 30
0.0
 10
4.8457
 20
-36.9006
 30
0.0
 10
4.8457
 20
-36.9006
 30
0.0
 10
4.7667
 20
-36.8729
 30
0.0
 10
4.6745
 20
-36.8202
 30
0.0
 10
4.5686
 20
-36.7421
 30
0.0
 10
4.5686
 20
-36.7421
 30
0.0
 10
4.5686
 20
-36.7421
 30
0.0
 10
4.3372
 20
-37.0013
 30
0.0
 10
4.3372
 20
-37.0013
 30
0.0
 10
4.3372
 20
-37.0013
 30
0.0
 10
4.3372
 20
-37.0013
 30
0.0
 10
4.2008
 20
-36.8856
 30
0.0
 10
4.2008
 20
-36.8856
 30
0.0
 10
4.2008
 20
-36.8856
 30
0.0
 10
4.2008
 20
-36.8856
 30
0.0
 10
4.4435
 20
-36.6142
 30
0.0
 10
4.4435
 20
-36.6142
 30
0.0
 10
4.4435
 20
-36.6142
 30
0.0
 10
4.3532
 20
-36.4773
 30
0.0
 10
4.293
 20
-36.3602
 30
0.0
 10
4.2629
 20
-36.2633
 30
0.0
 10
4.2629
 20
-36.2633
 30
0.0
 10
4.2328
 20
-36.1664
 30
0.0
 10
4.2173
 20
-36.0497
 30
0.0
 10
4.2173
 20
-35.9138
 30
0.0
 10
4.2173
 20
-35.9138
 30
0.0
 10
4.2173
 20
-35.7064
 30
0.0
 10
4.2587
 20
-35.5215
 30
0.0
 10
4.3414
 20
-35.3592
 30
0.0
 10
4.3414
 20
-35.3592
 30
0.0
 10
4.4242
 20
-35.1969
 30
0.0
 10
4.5399
 20
-35.0742
 30
0.0
 10
4.6895
 20
-34.9905
 30
0.0
 10
4.6895
 20
-34.9905
 30
0.0
 10
4.8386
 20
-34.9072
 30
0.0
 10
5.0047
 20
-34.8653
 30
0.0
 10
5.1876
 20
-34.8653
 30
0.0
 10
5.1876
 20
-34.8653
 30
0.0
 10
5.3109
 20
-34.8653
 30
0.0
 10
5.4186
 20
-34.8813
 30
0.0
 10
5.5108
 20
-34.9143
 30
0.0
 10
5.5108
 20
-34.9143
 30
0.0
 10
5.603
 20
-34.9467
 30
0.0
 10
5.7027
 20
-35.0036
 30
0.0
 10
5.809
 20
-35.0845
 30
0.0
  0
SPLINE
  5
13A
330
1F
100
AcDbEntity
  8
AXIS
 62
   250
100
AcDbSpline
210
0.0
220
0.0
230
1.0
 70
    11
 71
     3
 72
    32
 73
    28
 74
     0
 42
0.0000000001
 43
0.0000000001
 40
0.0
 40
0.0
 40
0.0
 40
0.0
 40
0.125
 40
0.125
 40
0.125
 40
0.125
 40
0.25
 40
0.25
 40
0.25
 40
0.25
 40
0.375
 40
0.375
 40
0.375
 40
0.375
 40
0.5
 40
0.5
 40
0.5
 40
0.5
 40
0.625
 40
0.625
 40
0.625
 40
0.625
 40
0.75
 40
0.75
 40
0.75
 40
0.75
 40
1.0
 40
1.0
 40
1.0
 40
1.0
 10
5.6439
 20
-35.2703
 30
0.0
 10
5.5573
 20
-35.2026
 30
0.0
 10
5.4816
 20
-35.156
 30
0.0
 10
5.4172
 20
-35.1311
 30
0.0
 10
5.4172
 20
-35.1311
 30
0.0
 10
5.3523
 20
-35.1066
 30
0.0
 10
5.2761
 20
-35.0939
 30
0.0
 10
5.189
 20
-35.0939
 30
0.0
 10
5.189
 20
-35.0939
 30
0.0
 10
4.9877
 20
-35.0939
 30
0.0
 10
4.8217
 20
-35.1621
 30
0.0
 10
4.69
 20
-35.2985
 30
0.0
 10
4.69
 20
-35.2985
 30
0.0
 10
4.5587
 20
-35.435
 30
0.0
 10
4.4929
 20
-35.6386
 30
0.0
 10
4.4929
 20
-35.91
 30
0.0
 10
4.4929
 20
-35.91
 30
0.0
 10
4.4929
 20
-36.0163
 30
0.0
 10
4.5032
 20
-36.1109
 30
0.0
 10
4.5235
 20
-36.1937
 30
0.0
 10
4.5235
 20
-36.1937
 30
0.0
 10
4.5381
 20
-36.2553
 30
0.0
 10
4.5686
 20
-36.331
 30
0.0
 10
4.6157
 20
-36.4208
 30
0.0
 10
4.6157
 20
-36.4208
 30
0.0
 10
4.6157
 20
-36.4208
 30
0.0
 10
5.6439
 20
-35.2703
 30
0.0
 10
5.6439
 20
-35.2703
 30
0.0
  0
SPLINE
  5
13B
330
1F
100
AcDbEntity
  8
AXIS
 62
   250
100
AcDbSpline
210
0.0
220
0.0
230
1.0
 70
    11
 71
     3
 72
    28
 73
    24
 74
     0
 42
0.0000000001
 43
0.0000000001
 40
0.0
 40
0.0
 40
0.0
 40
0.0
 40
0.1428571428571428
 40
0.1428571428571428
 40
0.1428571428571428
 40
0.1428571428571428
 40
0.2857142857142857
 40
0.2857142857142857
 40
0.2857142857142857
 40
0.2857142857142857
 40
0.4285714285714285
 40
0.4285714285714285
 40
0.4285714285714285
 40
0.4285714285714285
 40
0.5714285714285714
 40
0.5714285714285714
 40
0.5714285714285714
 40
0.5714285714285714
 40
0.7142857142857143
 40
0.7142857142857143
 40
0.7142857142857143
 40
0.7142857142857143
 40
1.0
 40
1.0
 40
1.0
 40
1.0
 10
5.7568
 20
-35.4124
 30
0.0
 10
5.7568
 20
-35.4124
 30
0.0
 10
4.7328
 20
-36.5587
 30
0.0
 10
4.7328
 20
-36.5587
 30
0.0
 10
4.7328
 20
-36.5587
 30
0.0
 10
4.8033
 20
-36.6165
 30
0.0
 10
4.8687
 20
-36.657
 30
0.0
 10
4.9285
 20
-36.68
 30
0.0
 10
4.9285
 20
-36.68
 30
0.0
 10
5.0065
 20
-36.7106
 30
0.0
 10
5.0912
 20
-36.7256
 30
0.0
 10
5.182
 20
-36.7256
 30
0.0
 10
5.182
 20
-36.7256
 30
0.0
 10
5.3824
 20
-36.7256
 30
0.0
 10
5.5475
 20
-36.6551
 30
0.0
 10
5.6782
 20
-36.5135
 30
0.0
 10
5.6782
 20
-36.5135
 30
0.0
 10
5.8085
 20
-36.3719
 30
0.0
 10
5.8739
 20
-36.1734
 30
0.0
 10
5.8739
 20
-35.918
 30
0.0
 10
5.8739
 20
-35.918
 30
0.0
 10
5.8739
 20
-35.7271
 30
0.0
 10
5.8349
 20
-35.5582
 30
0.0
 10
5.7568
 20
-35.4124
 30
0.0
  0
SPLINE
  5
13C
330
1F
100
AcDbEntity
  8
AXIS
 62
   250
100
AcDbSpline
210
0.0
220
0.0
230
1.0
 70
    11
 71
     3
 72
    92
 73
    88
 74
     0
 42
0.0000000001
 43
0.0000000001
 40
0.0
 40
0.0
 40
0.0
 40
0.0
 40
0.0434782608695652
 40
0.0434782608695652
 40
0.0434782608695652
 40
0.0434782608695652
 40
0.0869565217391304
 40
0.0869565217391304
 40
0.0869565217391304
 40
0.0869565217391304
 40
0.1304347826086956
 40
0.1304347826086956
 40
0.1304347826086956
 40
0.1304347826086956
 40
0.1739130434782609
 40
0.1739130434782609
 40
0.1739130434782609
 40
0.1739130434782609
 40
0.2173913043478261
 40
0.2173913043478261
 40
0.2173913043478261
 40
0.2173913043478261
 40
0.2608695652173913
 40
0.2608695652173913
 40
0.2608695652173913
 40
0.2608695652173913
 40
0.3043478260869565
 40
0.3043478260869565
 40
0.3043478260869565
 40
0.3043478260869565
 40
0.3478260869565217
 40
0.3478260869565217
 40
0.3478260869565217
 40
0.3478260869565217
 40
0.391304347826087
 40
0.391304347826087
 40
0.391304347826087
 40
0.391304347826087
 40
0.4347826086956522
 40
0.4347826086956522
 40
0.4347826086956522
 40
0.4347826086956522
 40
0.4782608695652174
 40
0.4782608695652174
 40
0.4782608695652174
 40
0.4782608695652174
 40
0.5217391304347826
 40
0.5217391304347826
 40
0.5217391304347826
 40
0.5217391304347826
 40
0.5652173913043478
 40
0.5652173913043478
 40
0.5652173913043478
 40
0.5652173913043478
 40
0.6086956521739131
 40
0.6086956521739131
 40
0.6086956521739131
 40
0.6086956521739131
 40
0.6521739130434783
 40
0.6521739130434783
 40
0.6521739130434783
 40
0.6521739130434783
 40
0.6956521739130435
 40
0.6956521739130435
 40
0.6956521739130435
 40
0.6956521739130435
 40
0.7391304347826086
 40
0.7391304347826086
 40
0.7391304347826086
 40
0.7391304347826086
 40
0.782608695652174
 40
0.782608695652174
 40
0.782608695652174
 40
0.782608695652174
 40
0.8260869565217391
 40
0.8260869565217391
 40
0.8260869565217391
 40
0.8260869565217391
 40
0.8695652173913043
 40
0.8695652173913043
 40
0.8695652173913043
 40
0.8695652173913043
 40
0.9130434782608695
 40
0.9130434782608695
 40
0.9130434782608695
 40
0.9130434782608695
 40
1.0
 40
1.0
 40
1.0
 40
1.0
 10
6.3988
 20
-36.3907
 30
0.0
 10
6.3988
 20
-36.3907
 30
0.0
 10
6.6594
 20
-36.3686
 30
0.0
 10
6.6594
 20
-36.3686
 30
0.0
 10
6.6594
 20
-36.3686
 30
0.0
 10
6.6787
 20
-36.4956
 30
0.0
 10
6.7234
 20
-36.5906
 30
0.0
 10
6.7935
 20
-36.6546
 30
0.0
 10
6.7935
 20
-36.6546
 30
0.0
 10
6.864
 20
-36.7186
 30
0.0
 10
6.9487
 20
-36.7506
 30
0.0
 10
7.0479
 20
-36.7506
 30
0.0
 10
7.0479
 20
-36.7506
 30
0.0
 10
7.1674
 20
-36.7506
 30
0.0
 10
7.2685
 20
-36.7054
 30
0.0
 10
7.3508
 20
-36.6156
 30
0.0
 10
7.3508
 20
-36.6156
 30
0.0
 10
7.4336
 20
-36.5253
 30
0.0
 10
7.475
 20
-36.4058
 30
0.0
 10
7.475
 20
-36.2572
 30
0.0
 10
7.475
 20
-36.2572
 30
0.0
 10
7.475
 20
-36.1156
 30
0.0
 10
7.4355
 20
-36.0041
 30
0.0
 10
7.356
 20
-35.9223
 30
0.0
 10
7.356
 20
-35.9223
 30
0.0
 10
7.2765
 20
-35.8404
 30
0.0
 10
7.1726
 20
-35.7995
 30
0.0
 10
7.0437
 20
-35.7995
 30
0.0
 10
7.0437
 20
-35.7995
 30
0.0
 10
6.9637
 20
-35.7995
 30
0.0
 10
6.8918
 20
-35.8178
 30
0.0
 10
6.8273
 20
-35.854
 30
0.0
 10
6.8273
 20
-35.854
 30
0.0
 10
6.7629
 20
-35.8903
 30
0.0
 10
6.7126
 20
-35.9373
 30
0.0
 10
6.6759
 20
-35.9952
 30
0.0
 10
6.6759
 20
-35.9952
 30
0.0
 10
6.6759
 20
-35.9952
 30
0.0
 10
6.443
 20
-35.9651
 30
0.0
 10
6.443
 20
-35.9651
 30
0.0
 10
6.443
 20
-35.9651
 30
0.0
 10
6.443
 20
-35.9651
 30
0.0
 10
6.6387
 20
-34.9274
 30
0.0
 10
6.6387
 20
-34.9274
 30
0.0
 10
6.6387
 20
-34.9274
 30
0.0
 10
6.6387
 20
-34.9274
 30
0.0
 10
7.6434
 20
-34.9274
 30
0.0
 10
7.6434
 20
-34.9274
 30
0.0
 10
7.6434
 20
-34.9274
 30
0.0
 10
7.6434
 20
-34.9274
 30
0.0
 10
7.6434
 20
-35.1645
 30
0.0
 10
7.6434
 20
-35.1645
 30
0.0
 10
7.6434
 20
-35.1645
 30
0.0
 10
7.6434
 20
-35.1645
 30
0.0
 10
6.8372
 20
-35.1645
 30
0.0
 10
6.8372
 20
-35.1645
 30
0.0
 10
6.8372
 20
-35.1645
 30
0.0
 10
6.8372
 20
-35.1645
 30
0.0
 10
6.7281
 20
-35.7073
 30
0.0
 10
6.7281
 20
-35.7073
 30
0.0
 10
6.7281
 20
-35.7073
 30
0.0
 10
6.8494
 20
-35.6226
 30
0.0
 10
6.9769
 20
-35.5803
 30
0.0
 10
7.11
 20
-35.5803
 30
0.0
 10
7.11
 20
-35.5803
 30
0.0
 10
7.2864
 20
-35.5803
 30
0.0
 10
7.435
 20
-35.6414
 30
0.0
 10
7.5564
 20
-35.7637
 30
0.0
 10
7.5564
 20
-35.7637
 30
0.0
 10
7.6777
 20
-35.886
 30
0.0
 10
7.7384
 20
-36.0431
 30
0.0
 10
7.7384
 20
-36.235
 30
0.0
 10
7.7384
 20
-36.235
 30
0.0
 10
7.7384
 20
-36.418
 30
0.0
 10
7.6848
 20
-36.5761
 30
0.0
 10
7.5785
 20
-36.7092
 30
0.0
 10
7.5785
 20
-36.7092
 30
0.0
 10
7.4487
 20
-36.8724
 30
0.0
 10
7.2718
 20
-36.9542
 30
0.0
 10
7.0479
 20
-36.9542
 30
0.0
 10
7.0479
 20
-36.9542
 30
0.0
 10
6.864
 20
-36.9542
 30
0.0
 10
6.714
 20
-36.903
 30
0.0
 10
6.5978
 20
-36.8
 30
0.0
 10
6.5978
 20
-36.8
 30
0.0
 10
6.4816
 20
-36.6969
 30
0.0
 10
6.4153
 20
-36.5605
 30
0.0
 10
6.3988
 20
-36.3907
 30
0.0
  0
SPLINE
  5
13D
330
1F
100
AcDbEntity
  8
AXIS
 62
   250
100
AcDbSpline
210
0.0
220
0.0
230
1.0
 70
    11
 71
     3
 72
    48
 73
    44
 74
     0
 42
0.0000000001
 43
0.0000000001
 40
0.0
 40
0.0
 40
0.0
 40
0.0
 40
0.0833333333333333
 40
0.0833333333333333
 40
0.0833333333333333
 40
0.0833333333333333
 40
0.1666666666666667
 40
0.1666666666666667
 40
0.1666666666666667
 40
0.1666666666666667
 40
0.25
 40
0.25
 40
0.25
 40
0.25
 40
0.3333333333333333
 40
0.3333333333333333
 40
0.3333333333333333
 40
0.3333333333333333
 40
0.4166666666666667
 40
0.4166666666666667
 40
0.4166666666666667
 40
0.4166666666666667
 40
0.5
 40
0.5
 40
0.5
 40
0.5
 40
0.5833333333333334
 40
0.5833333333333334
 40
0.5833333333333334
 40
0.5833333333333334
 40
0.6666666666666666
 40
0.6666666666666666
 40
0.6666666666666666
 40
0.6666666666666666
 40
0.75
 40
0.75
 40
0.75
 40
0.75
 40
0.8333333333333334
 40
0.8333333333333334
 40
0.8333333333333334
 40
0.8333333333333334
 40
1.0
 40
1.0
 40
1.0
 40
1.0
 10
7.9849
 20
-35.1645
 30
0.0
 10
7.9849
 20
-35.1645
 30
0.0
 10
7.9849
 20
-34.926
 30
0.0
 10
7.9849
 20
-34.926
 30
0.0
 10
7.9849
 20
-34.926
 30
0.0
 10
7.9849
 20
-34.926
 30
0.0
 10
9.2925
 20
-34.926
 30
0.0
 10
9.2925
 20
-34.926
 30
0.0
 10
9.2925
 20
-34.926
 30
0.0
 10
9.2925
 20
-34.926
 30
0.0
 10
9.2925
 20
-35.1189
 30
0.0
 10
9.2925
 20
-35.1189
 30
0.0
 10
9.2925
 20
-35.1189
 30
0.0
 10
9.1641
 20
-35.2557
 30
0.0
 10
9.0366
 20
-35.4378
 30
0.0
 10
8.9101
 20
-35.6645
 30
0.0
 10
8.9101
 20
-35.6645
 30
0.0
 10
8.784
 20
-35.8912
 30
0.0
 10
8.6862
 20
-36.125
 30
0.0
 10
8.6175
 20
-36.3644
 30
0.0
 10
8.6175
 20
-36.3644
 30
0.0
 10
8.5677
 20
-36.5337
 30
0.0
 10
8.5362
 20
-36.7186
 30
0.0
 10
8.5225
 20
-36.9199
 30
0.0
 10
8.5225
 20
-36.9199
 30
0.0
 10
8.5225
 20
-36.9199
 30
0.0
 10
8.2676
 20
-36.9199
 30
0.0
 10
8.2676
 20
-36.9199
 30
0.0
 10
8.2676
 20
-36.9199
 30
0.0
 10
8.2704
 20
-36.7609
 30
0.0
 10
8.3014
 20
-36.569
 30
0.0
 10
8.3612
 20
-36.3437
 30
0.0
 10
8.3612
 20
-36.3437
 30
0.0
 10
8.4209
 20
-36.1189
 30
0.0
 10
8.5065
 20
-35.9016
 30
0.0
 10
8.618
 20
-35.6927
 30
0.0
 10
8.618
 20
-35.6927
 30
0.0
 10
8.7299
 20
-35.4839
 30
0.0
 10
8.8485
 20
-35.3075
 30
0.0
 10
8.9745
 20
-35.1645
 30
0.0
 10
8.9745
 20
-35.1645
 30
0.0
 10
8.9745
 20
-35.1645
 30
0.0
 10
7.9849
 20
-35.1645
 30
0.0
 10
7.9849
 20
-35.1645
 30
0.0
  0
SPLINE
  5
13E
330
1F
100
AcDbEntity
  8
AXIS
 62
   250
100
AcDbSpline
210
0.0
220
0.0
230
1.0
 70
    11
 71
     3
 72
    40
 73
    36
 74
     0
 42
0.0000000001
 43
0.0000000001
 40
0.0
 40
0.0
 40
0.0
 40
0.0
 40
0.1
 40
0.1
 40
0.1
 40
0.1
 40
0.2
 40
0.2
 40
0.2
 40
0.2
 40
0.3
 40
0.3
 40
0.3
 40
0.3
 40
0.4
 40
0.4
 40
0.4
 40
0.4
 40
0.5
 40
0.5
 40
0.5
 40
0.5
 40
0.6
 40
0.6
 40
0.6
 40
0.6
 40
0.7
 40
0.7
 40
0.7
 40
0.7
 40
0.8
 40
0.8
 40
0.8
 40
0.8
 40
1.0
 40
1.0
 40
1.0
 40
1.0
 10
9.6716
 20
-36.9199
 30
0.0
 10
9.6716
 20
-36.9199
 30
0.0
 10
9.6716
 20
-36.6372
 30
0.0
 10
9.6716
 20
-36.6372
 30
0.0
 10
9.6716
 20
-36.6372
 30
0.0
 10
9.6716
 20
-36.6372
 30
0.0
 10
9.9543
 20
-36.6372
 30
0.0
 10
9.9543
 20
-36.6372
 30
0.0
 10
9.9543
 20
-36.6372
 30
0.0
 10
9.9543
 20
-36.6372
 30
0.0
 10
9.9543
 20
-36.9199
 30
0.0
 10
9.9543
 20
-36.9199
 30
0.0
 10
9.9543
 20
-36.9199
 30
0.0
 10
9.9543
 20
-37.0239
 30
0.0
 10
9.936
 20
-37.1076
 30
0.0
 10
9.8993
 20
-37.1715
 30
0.0
 10
9.8993
 20
-37.1715
 30
0.0
 10
9.8621
 20
-37.235
 30
0.0
 10
9.8038
 20
-37.2844
 30
0.0
 10
9.7243
 20
-37.3197
 30
0.0
 10
9.7243
 20
-37.3197
 30
0.0
 10
9.7243
 20
-37.3197
 30
0.0
 10
9.6551
 20
-37.2134
 30
0.0
 10
9.6551
 20
-37.2134
 30
0.0
 10
9.6551
 20
-37.2134
 30
0.0
 10
9.7074
 20
-37.1904
 30
0.0
 10
9.7459
 20
-37.1565
 30
0.0
 10
9.7709
 20
-37.1123
 30
0.0
 10
9.7709
 20
-37.1123
 30
0.0
 10
9.7958
 20
-37.0676
 30
0.0
 10
9.8094
 20
-37.0036
 30
0.0
 10
9.8122
 20
-36.9199
 30
0.0
 10
9.8122
 20
-36.9199
 30
0.0
 10
9.8122
 20
-36.9199
 30
0.0
 10
9.6716
 20
-36.9199
 30
0.0
 10
9.6716
 20
-36.9199
 30
0.0
  0
SPLINE
  5
13F
330
1F
100
AcDbEntity
  8
AXIS
 62
   250
100
AcDbSpline
210
0.0
220
0.0
230
1.0
 70
    11
 71
     3
 72
    92
 73
    88
 74
     0
 42
0.0000000001
 43
0.0000000001
 40
0.0
 40
0.0
 40
0.0
 40
0.0
 40
0.0434782608695652
 40
0.0434782608695652
 40
0.0434782608695652
 40
0.0434782608695652
 40
0.0869565217391304
 40
0.0869565217391304
 40
0.0869565217391304
 40
0.0869565217391304
 40
0.1304347826086956
 40
0.1304347826086956
 40
0.1304347826086956
 40
0.1304347826086956
 40
0.1739130434782609
 40
0.1739130434782609
 40
0.1739130434782609
 40
0.1739130434782609
 40
0.2173913043478261
 40
0.2173913043478261
 40
0.2173913043478261
 40
0.2173913043478261
 40
0.2608695652173913
 40
0.2608695652173913
 40
0.2608695652173913
 40
0.2608695652173913
 40
0.3043478260869565
 40
0.3043478260869565
 40
0.3043478260869565
 40
0.3043478260869565
 40
0.3478260869565217
 40
0.3478260869565217
 40
0.3478260869565217
 40
0.3478260869565217
 40
0.391304347826087
 40
0.391304347826087
 40
0.391304347826087
 40
0.391304347826087
 40
0.4347826086956522
 40
0.4347826086956522
 40
0.4347826086956522
 40
0.4347826086956522
 40
0.4782608695652174
 40
0.4782608695652174
 40
0.4782608695652174
 40
0.4782608695652174
 40
0.5217391304347826
 40
0.5217391304347826
 40
0.5217391304347826
 40
0.5217391304347826
 40
0.5652173913043478
 40
0.5652173913043478
 40
0.5652173913043478
 40
0.5652173913043478
 40
0.6086956521739131
 40
0.6086956521739131
 40
0.6086956521739131
 40
0.6086956521739131
 40
0.6521739130434783
 40
0.6521739130434783
 40
0.6521739130434783
 40
0.6521739130434783
 40
0.6956521739130435
 40
0.6956521739130435
 40
0.6956521739130435
 40
0.6956521739130435
 40
0.7391304347826086
 40
0.7391304347826086
 40
0.7391304347826086
 40
0.7391304347826086
 40
0.782608695652174
 40
0.782608695652174
 40
0.782608695652174
 40
0.782608695652174
 40
0.8260869565217391
 40
0.8260869565217391
 40
0.8260869565217391
 40
0.8260869565217391
 40
0.8695652173913043
 40
0.8695652173913043
 40
0.8695652173913043
 40
0.8695652173913043
 40
0.9130434782608695
 40
0.9130434782608695
 40
0.9130434782608695
 40
0.9130434782608695
 40
1.0
 40
1.0
 40
1.0
 40
1.0
 10
10.3221
 20
-36.3907
 30
0.0
 10
10.3221
 20
-36.3907
 30
0.0
 10
10.5827
 20
-36.3686
 30
0.0
 10
10.5827
 20
-36.3686
 30
0.0
 10
10.5827
 20
-36.3686
 30
0.0
 10
10.602
 20
-36.4956
 30
0.0
 10
10.6467
 20
-36.5906
 30
0.0
 10
10.7168
 20
-36.6546
 30
0.0
 10
10.7168
 20
-36.6546
 30
0.0
 10
10.7873
 20
-36.7186
 30
0.0
 10
10.872
 20
-36.7506
 30
0.0
 10
10.9712
 20
-36.7506
 30
0.0
 10
10.9712
 20
-36.7506
 30
0.0
 10
11.0907
 20
-36.7506
 30
0.0
 10
11.1918
 20
-36.7054
 30
0.0
 10
11.2741
 20
-36.6156
 30
0.0
 10
11.2741
 20
-36.6156
 30
0.0
 10
11.3569
 20
-36.5253
 30
0.0
 10
11.3983
 20
-36.4058
 30
0.0
 10
11.3983
 20
-36.2572
 30
0.0
 10
11.3983
 20
-36.2572
 30
0.0
 10
11.3983
 20
-36.1156
 30
0.0
 10
11.3588
 20
-36.0041
 30
0.0
 10
11.2793
 20
-35.9223
 30
0.0
 10
11.2793
 20
-35.9223
 30
0.0
 10
11.1998
 20
-35.8404
 30
0.0
 10
11.0959
 20
-35.7995
 30
0.0
 10
10.967
 20
-35.7995
 30
0.0
 10
10.967
 20
-35.7995
 30
0.0
 10
10.887
 20
-35.7995
 30
0.0
 10
10.8151
 20
-35.8178
 30
0.0
 10
10.7506
 20
-35.854
 30
0.0
 10
10.7506
 20
-35.854
 30
0.0
 10
10.6862
 20
-35.8903
 30
0.0
 10
10.6359
 20
-35.9373
 30
0.0
 10
10.5992
 20
-35.9952
 30
0.0
 10
10.5992
 20
-35.9952
 30
0.0
 10
10.5992
 20
-35.9952
 30
0.0
 10
10.3663
 20
-35.9651
 30
0.0
 10
10.3663
 20
-35.9651
 30
0.0
 10
10.3663
 20
-35.9651
 30
0.0
 10
10.3663
 20
-35.9651
 30
0.0
 10
10.562
 20
-34.9274
 30
0.0
 10
10.562
 20
-34.9274
 30
0.0
 10
10.562
 20
-34.9274
 30
0.0
 10
10.562
 20
-34.9274
 30
0.0
 10
11.5667
 20
-34.9274
 30
0.0
 10
11.5667
 20
-34.9274
 30
0.0
 10
11.5667
 20
-34.9274
 30
0.0
 10
11.5667
 20
-34.9274
 30
0.0
 10
11.5667
 20
-35.1645
 30
0.0
 10
11.5667
 20
-35.1645
 30
0.0
 10
11.5667
 20
-35.1645
 30
0.0
 10
11.5667
 20
-35.1645
 30
0.0
 10
10.7605
 20
-35.1645
 30
0.0
 10
10.7605
 20
-35.1645
 30
0.0
 10
10.7605
 20
-35.1645
 30
0.0
 10
10.7605
 20
-35.1645
 30
0.0
 10
10.6514
 20
-35.7073
 30
0.0
 10
10.6514
 20
-35.7073
 30
0.0
 10
10.6514
 20
-35.7073
 30
0.0
 10
10.7727
 20
-35.6226
 30
0.0
 10
10.9002
 20
-35.5803
 30
0.0
 10
11.0333
 20
-35.5803
 30
0.0
 10
11.0333
 20
-35.5803
 30
0.0
 10
11.2097
 20
-35.5803
 30
0.0
 10
11.3583
 20
-35.6414
 30
0.0
 10
11.4797
 20
-35.7637
 30
0.0
 10
11.4797
 20
-35.7637
 30
0.0
 10
11.601
 20
-35.886
 30
0.0
 10
11.6617
 20
-36.0431
 30
0.0
 10
11.6617
 20
-36.235
 30
0.0
 10
11.6617
 20
-36.235
 30
0.0
 10
11.6617
 20
-36.418
 30
0.0
 10
11.6081
 20
-36.5761
 30
0.0
 10
11.5018
 20
-36.7092
 30
0.0
 10
11.5018
 20
-36.7092
 30
0.0
 10
11.372
 20
-36.8724
 30
0.0
 10
11.1951
 20
-36.9542
 30
0.0
 10
10.9712
 20
-36.9542
 30
0.0
 10
10.9712
 20
-36.9542
 30
0.0
 10
10.7873
 20
-36.9542
 30
0.0
 10
10.6373
 20
-36.903
 30
0.0
 10
10.5211
 20
-36.8
 30
0.0
 10
10.5211
 20
-36.8
 30
0.0
 10
10.4049
 20
-36.6969
 30
0.0
 10
10.3386
 20
-36.5605
 30
0.0
 10
10.3221
 20
-36.3907
 30
0.0
  0
SPLINE
  5
140
330
1F
100
AcDbEntity
  8
AXIS
 62
   250
100
AcDbSpline
210
0.0
220
0.0
230
1.0
 70
    11
 71
     3
 72
    20
 73
    16
 74
     0
 42
0.0000000001
 43
0.0000000001
 40
0.0
 40
0.0
 40
0.0
 40
0.0
 40
0.2
 40
0.2
 40
0.2
 40
0.2
 40
0.4
 40
0.4
 40
0.4
 40
0.4
 40
0.6
 40
0.6
 40
0.6
 40
0.6
 40
1.0
 40
1.0
 40
1.0
 40
1.0
 10
-10.0101
 20
35.3919
 30
0.0
 10
-10.0101
 20
35.3919
 30
0.0
 10
-10.4329
 20
32.3959
 30
0.0
 10
-10.4329
 20
32.3959
 30
0.0
 10
-10.4329
 20
32.3959
 30
0.0
 10
-10.4329
 20
32.3959
 30
0.0
 10
-10.5269
 20
32.3959
 30
0.0
 10
-10.5269
 20
32.3959
 30
0.0
 10
-10.5269
 20
32.3959
 30
0.0
 10
-10.5269
 20
32.3959
 30
0.0
 10
-10.9778
 20
35.3919
 30
0.0
 10
-10.9778
 20
35.3919
 30
0.0
 10
-10.9778
 20
35.3919
 30
0.0
 10
-10.9778
 20
35.3919
 30
0.0
 10
-10.0101
 20
35.3919
 30
0.0
 10
-10.0101
 20
35.3919
 30
0.0
  0
SPLINE
  5
141
330
1F
100
AcDbEntity
  8
AXIS
 62
   250
100
AcDbSpline
210
0.0
220
0.0
230
1.0
 70
    11
 71
     3
 72
    20
 73
    16
 74
     0
 42
0.0000000001
 43
0.0000000001
 40
0.0
 40
0.0
 40
0.0
 40
0.0
 40
0.2
 40
0.2
 40
0.2
 40
0.2
 40
0.4
 40
0.4
 40
0.4
 40
0.4
 40
0.6
 40
0.6
 40
0.6
 40
0.6
 40
1.0
 40
1.0
 40
1.0
 40
1.0
 10
14.3188
 20
27.7958
 30
0.0
 10
14.3188
 20
27.7958
 30
0.0
 10
14.7416
 20
30.7918
 30
0.0
 10
14.7416
 20
30.7918
 30
0.0
 10
14.7416
 20
30.7918
 30
0.0
 10
14.7416
 20
30.7918
 30
0.0
 10
14.8355
 20
30.7918
 30
0.0
 10
14.8355
 20
30.7918
 30
0.0
 10
14.8355
 20
30.7918
 30
0.0
 10
14.8355
 20
30.7918
 30
0.0
 10
15.2864
 20
27.7958
 30
0.0
 10
15.2864
 20
27.7958
 30
0.0
 10
15.2864
 20
27.7958
 30
0.0
 10
15.2864
 20
27.7958
 30
0.0
 10
14.3188
 20
27.7958
 30
0.0
 10
14.3188
 20
27.7958
 30
0.0
  0
SPLINE
  5
142
330
1F
100
AcDbEntity
  8
AXIS
 62
   250
100
AcDbSpline
210
0.0
220
0.0
230
1.0
 70
    11
 71
     3
 72
    20
 73
    16
 74
     0
 42
0.0000000001
 43
0.0000000001
 40
0.0
 40
0.0
 40
0.0
 40
0.0
 40
0.2
 40
0.2
 40
0.2
 40
0.2
 40
0.4
 40
0.4
 40
0.4
 40
0.4
 40
0.6
 40
0.6
 40
0.6
 40
0.6
 40
1.0
 40
1.0
 40
1.0
 40
1.0
 10
15.314
 20
-23.1947
 30
0.0
 10
15.314
 20
-23.1947
 30
0.0
 10
14.8912
 20
-26.1907
 30
0.0
 10
14.8912
 20
-26.1907
 30
0.0
 10
14.8912
 20
-26.1907
 30
0.0
 10
14.8912
 20
-26.1907
 30
0.0
 10
14.7972
 20
-26.1907
 30
0.0
 10
14.7972
 20
-26.1907
 30
0.0
 10
14.7972
 20
-26.1907
 30
0.0
 10
14.7972
 20
-26.1907
 30
0.0
 10
14.3463
 20
-23.1947
 30
0.0
 10
14.3463
 20
-23.1947
 30
0.0
 10
14.3463
 20
-23.1947
 30
0.0
 10
14.3463
 20
-23.1947
 30
0.0
 10
15.314
 20
-23.1947
 30
0.0
 10
15.314
 20
-23.1947
 30
0.0
  0
SPLINE
  5
143
330
1F
100
AcDbEntity
  8
AXIS
 62
   250
100
AcDbSpline
210
0.0
220
0.0
230
1.0
 70
    11
 71
     3
 72
    92
 73
    88
 74
     0
 42
0.0000000001
 43
0.0000000001
 40
0.0
 40
0.0
 40
0.0
 40
0.0
 40
0.0434782608695652
 40
0.0434782608695652
 40
0.0434782608695652
 40
0.0434782608695652
 40
0.0869565217391304
 40
0.0869565217391304
 40
0.0869565217391304
 40
0.0869565217391304
 40
0.1304347826086956
 40
0.1304347826086956
 40
0.1304347826086956
 40
0.1304347826086956
 40
0.1739130434782609
 40
0.1739130434782609
 40
0.1739130434782609
 40
0.1739130434782609
 40
0.2173913043478261
 40
0.2173913043478261
 40
0.2173913043478261
 40
0.2173913043478261
 40
0.2608695652173913
 40
0.2608695652173913
 40
0.2608695652173913
 40
0.2608695652173913
 40
0.3043478260869565
 40
0.3043478260869565
 40
0.3043478260869565
 40
0.3043478260869565
 40
0.3478260869565217
 40
0.3478260869565217
 40
0.3478260869565217
 40
0.3478260869565217
 40
0.391304347826087
 40
0.391304347826087
 40
0.391304347826087
 40
0.391304347826087
 40
0.4347826086956522
 40
0.4347826086956522
 40
0.4347826086956522
 40
0.4347826086956522
 40
0.4782608695652174
 40
0.4782608695652174
 40
0.4782608695652174
 40
0.4782608695652174
 40
0.5217391304347826
 40
0.5217391304347826
 40
0.5217391304347826
 40
0.5217391304347826
 40
0.5652173913043478
 40
0.5652173913043478
 40
0.5652173913043478
 40
0.5652173913043478
 40
0.6086956521739131
 40
0.6086956521739131
 40
0.6086956521739131
 40
0.6086956521739131
 40
0.6521739130434783
 40
0.6521739130434783
 40
0.6521739130434783
 40
0.6521739130434783
 40
0.6956521739130435
 40
0.6956521739130435
 40
0.6956521739130435
 40
0.6956521739130435
 40
0.7391304347826086
 40
0.7391304347826086
 40
0.7391304347826086
 40
0.7391304347826086
 40
0.782608695652174
 40
0.782608695652174
 40
0.782608695652174
 40
0.782608695652174
 40
0.8260869565217391
 40
0.8260869565217391
 40
0.8260869565217391
 40
0.8260869565217391
 40
0.8695652173913043
 40
0.8695652173913043
 40
0.8695652173913043
 40
0.8695652173913043
 40
0.9130434782608695
 40
0.9130434782608695
 40
0.9130434782608695
 40
0.9130434782608695
 40
1.0
 40
1.0
 40
1.0
 40
1.0
 10
-11.9634
 20
31.2599
 30
0.0
 10
-11.9634
 20
31.2599
 30
0.0
 10
-11.9855
 20
31.4984
 30
0.0
 10
-11.9855
 20
31.4984
 30
0.0
 10
-11.9855
 20
31.4984
 30
0.0
 10
-11.8735
 20
31.5186
 30
0.0
 10
-11.7922
 20
31.5572
 30
0.0
 10
-11.7414
 20
31.6141
 30
0.0
 10
-11.7414
 20
31.6141
 30
0.0
 10
-11.691
 20
31.671
 30
0.0
 10
-11.6656
 20
31.7439
 30
0.0
 10
-11.6656
 20
31.8333
 30
0.0
 10
-11.6656
 20
31.8333
 30
0.0
 10
-11.6656
 20
31.9095
 30
0.0
 10
-11.683
 20
31.9762
 30
0.0
 10
-11.7183
 20
32.0336
 30
0.0
 10
-11.7183
 20
32.0336
 30
0.0
 10
-11.7531
 20
32.091
 30
0.0
 10
-11.7997
 20
32.1381
 30
0.0
 10
-11.858
 20
32.1747
 30
0.0
 10
-11.858
 20
32.1747
 30
0.0
 10
-11.9163
 20
32.2119
 30
0.0
 10
-11.9954
 20
32.2425
 30
0.0
 10
-12.0941
 20
32.2674
 30
0.0
 10
-12.0941
 20
32.2674
 30
0.0
 10
-12.1934
 20
32.2919
 30
0.0
 10
-12.2945
 20
32.3046
 30
0.0
 10
-12.3975
 20
32.3046
 30
0.0
 10
-12.3975
 20
32.3046
 30
0.0
 10
-12.4083
 20
32.3046
 30
0.0
 10
-12.4253
 20
32.3041
 30
0.0
 10
-12.4469
 20
32.3032
 30
0.0
 10
-12.4469
 20
32.3032
 30
0.0
 10
-12.3684
 20
32.2533
 30
0.0
 10
-12.3039
 20
32.1856
 30
0.0
 10
-12.255
 20
32.1
 30
0.0
 10
-12.255
 20
32.1
 30
0.0
 10
-12.2056
 20
32.0139
 30
0.0
 10
-12.1812
 20
31.9207
 30
0.0
 10
-12.1812
 20
31.821
 30
0.0
 10
-12.1812
 20
31.821
 30
0.0
 10
-12.1812
 20
31.6536
 30
0.0
 10
-12.2418
 20
31.512
 30
0.0
 10
-12.3632
 20
31.3963
 30
0.0
 10
-12.3632
 20
31.3963
 30
0.0
 10
-12.4845
 20
31.2806
 30
0.0
 10
-12.644
 20
31.2227
 30
0.0
 10
-12.8425
 20
31.2227
 30
0.0
 10
-12.8425
 20
31.2227
 30
0.0
 10
-13.0476
 20
31.2227
 30
0.0
 10
-13.2122
 20
31.2829
 30
0.0
 10
-13.3373
 20
31.4038
 30
0.0
 10
-13.3373
 20
31.4038
 30
0.0
 10
-13.4624
 20
31.5247
 30
0.0
 10
-13.525
 20
31.6762
 30
0.0
 10
-13.525
 20
31.8582
 30
0.0
 10
-13.525
 20
31.8582
 30
0.0
 10
-13.525
 20
31.9894
 30
0.0
 10
-13.4892
 20
32.1094
 30
0.0
 10
-13.4187
 20
32.2185
 30
0.0
 10
-13.4187
 20
32.2185
 30
0.0
 10
-13.3481
 20
32.3271
 30
0.0
 10
-13.247
 20
32.4099
 30
0.0
 10
-13.1162
 20
32.4664
 30
0.0
 10
-13.1162
 20
32.4664
 30
0.0
 10
-12.9855
 20
32.5228
 30
0.0
 10
-12.7959
 20
32.551
 30
0.0
 10
-12.5476
 20
32.551
 30
0.0
 10
-12.5476
 20
32.551
 30
0.0
 10
-12.2898
 20
32.551
 30
0.0
 10
-12.0843
 20
32.5233
 30
0.0
 10
-11.9309
 20
32.4673
 30
0.0
 10
-11.9309
 20
32.4673
 30
0.0
 10
-11.778
 20
32.4109
 30
0.0
 10
-11.6619
 20
32.3276
 30
0.0
 10
-11.5819
 20
32.2171
 30
0.0
 10
-11.5819
 20
32.2171
 30
0.0
 10
-11.5019
 20
32.1061
 30
0.0
 10
-11.462
 20
31.9767
 30
0.0
 10
-11.462
 20
31.8276
 30
0.0
 10
-11.462
 20
31.8276
 30
0.0
 10
-11.462
 20
31.6696
 30
0.0
 10
-11.5057
 20
31.5407
 30
0.0
 10
-11.5937
 20
31.4405
 30
0.0
 10
-11.5937
 20
31.4405
 30
0.0
 10
-11.6812
 20
31.3403
 30
0.0
 10
-11.8044
 20
31.2801
 30
0.0
 10
-11.9634
 20
31.2599
 30
0.0
  0
SPLINE
  5
144
330
1F
100
AcDbEntity
  8
AXIS
 62
   250
100
AcDbSpline
210
0.0
220
0.0
230
1.0
 70
    11
 71
     3
 72
    36
 73
    32
 74
     0
 42
0.0000000001
 43
0.0000000001
 40
0.0
 40
0.0
 40
0.0
 40
0.0
 40
0.1111111111111111
 40
0.1111111111111111
 40
0.1111111111111111
 40
0.1111111111111111
 40
0.2222222222222222
 40
0.2222222222222222
 40
0.2222222222222222
 40
0.2222222222222222
 40
0.3333333333333333
 40
0.3333333333333333
 40
0.3333333333333333
 40
0.3333333333333333
 40
0.4444444444444444
 40
0.4444444444444444
 40
0.4444444444444444
 40
0.4444444444444444
 40
0.5555555555555556
 40
0.5555555555555556
 40
0.5555555555555556
 40
0.5555555555555556
 40
0.6666666666666666
 40
0.6666666666666666
 40
0.6666666666666666
 40
0.6666666666666666
 40
0.7777777777777778
 40
0.7777777777777778
 40
0.7777777777777778
 40
0.7777777777777778
 40
1.0
 40
1.0
 40
1.0
 40
1.0
 10
-12.8552
 20
32.2754
 30
0.0
 10
-12.9972
 20
32.2754
 30
0.0
 10
-13.1106
 20
32.2378
 30
0.0
 10
-13.1939
 20
32.162
 30
0.0
 10
-13.1939
 20
32.162
 30
0.0
 10
-13.2776
 20
32.0858
 30
0.0
 10
-13.3194
 20
31.9951
 30
0.0
 10
-13.3194
 20
31.8883
 30
0.0
 10
-13.3194
 20
31.8883
 30
0.0
 10
-13.3194
 20
31.7782
 30
0.0
 10
-13.2743
 20
31.6823
 30
0.0
 10
-13.1844
 20
31.6004
 30
0.0
 10
-13.1844
 20
31.6004
 30
0.0
 10
-13.0941
 20
31.5186
 30
0.0
 10
-12.9775
 20
31.4777
 30
0.0
 10
-12.8345
 20
31.4777
 30
0.0
 10
-12.8345
 20
31.4777
 30
0.0
 10
-12.7056
 20
31.4777
 30
0.0
 10
-12.6012
 20
31.5167
 30
0.0
 10
-12.5208
 20
31.5943
 30
0.0
 10
-12.5208
 20
31.5943
 30
0.0
 10
-12.4403
 20
31.6719
 30
0.0
 10
-12.4003
 20
31.7674
 30
0.0
 10
-12.4003
 20
31.8812
 30
0.0
 10
-12.4003
 20
31.8812
 30
0.0
 10
-12.4003
 20
31.9965
 30
0.0
 10
-12.4403
 20
32.0905
 30
0.0
 10
-12.5208
 20
32.1644
 30
0.0
 10
-12.5208
 20
32.1644
 30
0.0
 10
-12.6012
 20
32.2387
 30
0.0
 10
-12.7127
 20
32.2754
 30
0.0
 10
-12.8552
 20
32.2754
 30
0.0
  0
SPLINE
  5
145
330
1F
100
AcDbEntity
  8
AXIS
 62
   250
100
AcDbSpline
210
0.0
220
0.0
230
1.0
 70
    11
 71
     3
 72
   124
 73
   120
 74
     0
 42
0.0000000001
 43
0.0000000001
 40
0.0
 40
0.0
 40
0.0
 40
0.0
 40
0.032258064516129
 40
0.032258064516129
 40
0.032258064516129
 40
0.032258064516129
 40
0.0645161290322581
 40
0.0645161290322581
 40
0.0645161290322581
 40
0.0645161290322581
 40
0.0967741935483871
 40
0.0967741935483871
 40
0.0967741935483871
 40
0.0967741935483871
 40
0.1290322580645161
 40
0.1290322580645161
 40
0.1290322580645161
 40
0.1290322580645161
 40
0.1612903225806452
 40
0.1612903225806452
 40
0.1612903225806452
 40
0.1612903225806452
 40
0.1935483870967742
 40
0.1935483870967742
 40
0.1935483870967742
 40
0.1935483870967742
 40
0.2258064516129032
 40
0.2258064516129032
 40
0.2258064516129032
 40
0.2258064516129032
 40
0.2580645161290323
 40
0.2580645161290323
 40
0.2580645161290323
 40
0.2580645161290323
 40
0.2903225806451613
 40
0.2903225806451613
 40
0.2903225806451613
 40
0.2903225806451613
 40
0.3225806451612903
 40
0.3225806451612903
 40
0.3225806451612903
 40
0.3225806451612903
 40
0.3548387096774194
 40
0.3548387096774194
 40
0.3548387096774194
 40
0.3548387096774194
 40
0.3870967741935484
 40
0.3870967741935484
 40
0.3870967741935484
 40
0.3870967741935484
 40
0.4193548387096774
 40
0.4193548387096774
 40
0.4193548387096774
 40
0.4193548387096774
 40
0.4516129032258064
 40
0.4516129032258064
 40
0.4516129032258064
 40
0.4516129032258064
 40
0.4838709677419355
 40
0.4838709677419355
 40
0.4838709677419355
 40
0.4838709677419355
 40
0.5161290322580645
 40
0.5161290322580645
 40
0.5161290322580645
 40
0.5161290322580645
 40
0.5483870967741935
 40
0.5483870967741935
 40
0.5483870967741935
 40
0.5483870967741935
 40
0.5806451612903226
 40
0.5806451612903226
 40
0.5806451612903226
 40
0.5806451612903226
 40
0.6129032258064516
 40
0.6129032258064516
 40
0.6129032258064516
 40
0.6129032258064516
 40
0.6451612903225806
 40
0.6451612903225806
 40
0.6451612903225806
 40
0.6451612903225806
 40
0.6774193548387096
 40
0.6774193548387096
 40
0.6774193548387096
 40
0.6774193548387096
 40
0.7096774193548387
 40
0.7096774193548387
 40
0.7096774193548387
 40
0.7096774193548387
 40
0.7419354838709677
 40
0.7419354838709677
 40
0.7419354838709677
 40
0.7419354838709677
 40
0.7741935483870968
 40
0.7741935483870968
 40
0.7741935483870968
 40
0.7741935483870968
 40
0.8064516129032258
 40
0.8064516129032258
 40
0.8064516129032258
 40
0.8064516129032258
 40
0.8387096774193549
 40
0.8387096774193549
 40
0.8387096774193549
 40
0.8387096774193549
 40
0.8709677419354839
 40
0.8709677419354839
 40
0.8709677419354839
 40
0.8709677419354839
 40
0.9032258064516129
 40
0.9032258064516129
 40
0.9032258064516129
 40
0.9032258064516129
 40
0.9354838709677419
 40
0.9354838709677419
 40
0.9354838709677419
 40
0.9354838709677419
 40
1.0
 40
1.0
 40
1.0
 40
1.0
 10
13.7974
 20
1.9877
 30
0.0
 10
13.7974
 20
1.9877
 30
0.0
 10
13.7645
 20
2.2356
 30
0.0
 10
13.7645
 20
2.2356
 30
0.0
 10
13.7645
 20
2.2356
 30
0.0
 10
13.9051
 20
2.2643
 30
0.0
 10
14.0062
 20
2.3128
 30
0.0
 10
14.0683
 20
2.381
 30
0.0
 10
14.0683
 20
2.381
 30
0.0
 10
14.1304
 20
2.4496
 30
0.0
 10
14.1615
 20
2.5329
 30
0.0
 10
14.1615
 20
2.6312
 30
0.0
 10
14.1615
 20
2.6312
 30
0.0
 10
14.1615
 20
2.7478
 30
0.0
 10
14.121
 20
2.8466
 30
0.0
 10
14.0401
 20
2.9271
 30
0.0
 10
14.0401
 20
2.9271
 30
0.0
 10
13.9592
 20
3.007
 30
0.0
 10
13.859
 20
3.0475
 30
0.0
 10
13.7395
 20
3.0475
 30
0.0
 10
13.7395
 20
3.0475
 30
0.0
 10
13.6257
 20
3.0475
 30
0.0
 10
13.5316
 20
3.0103
 30
0.0
 10
13.4578
 20
2.936
 30
0.0
 10
13.4578
 20
2.936
 30
0.0
 10
13.384
 20
2.8612
 30
0.0
 10
13.3468
 20
2.7667
 30
0.0
 10
13.3468
 20
2.6519
 30
0.0
 10
13.3468
 20
2.6519
 30
0.0
 10
13.3468
 20
2.6049
 30
0.0
 10
13.3562
 20
2.5465
 30
0.0
 10
13.3745
 20
2.4769
 30
0.0
 10
13.3745
 20
2.4769
 30
0.0
 10
13.3745
 20
2.4769
 30
0.0
 10
13.1568
 20
2.5047
 30
0.0
 10
13.1568
 20
2.5047
 30
0.0
 10
13.1568
 20
2.5047
 30
0.0
 10
13.1586
 20
2.5211
 30
0.0
 10
13.1596
 20
2.5343
 30
0.0
 10
13.1596
 20
2.5446
 30
0.0
 10
13.1596
 20
2.5446
 30
0.0
 10
13.1596
 20
2.65
 30
0.0
 10
13.1318
 20
2.745
 30
0.0
 10
13.0768
 20
2.8297
 30
0.0
 10
13.0768
 20
2.8297
 30
0.0
 10
13.0218
 20
2.9144
 30
0.0
 10
12.9366
 20
2.9567
 30
0.0
 10
12.8219
 20
2.9567
 30
0.0
 10
12.8219
 20
2.9567
 30
0.0
 10
12.7311
 20
2.9567
 30
0.0
 10
12.6554
 20
2.9256
 30
0.0
 10
12.5961
 20
2.864
 30
0.0
 10
12.5961
 20
2.864
 30
0.0
 10
12.5364
 20
2.8024
 30
0.0
 10
12.5062
 20
2.7229
 30
0.0
 10
12.5062
 20
2.6255
 30
0.0
 10
12.5062
 20
2.6255
 30
0.0
 10
12.5062
 20
2.5291
 30
0.0
 10
12.5368
 20
2.4487
 30
0.0
 10
12.597
 20
2.3847
 30
0.0
 10
12.597
 20
2.3847
 30
0.0
 10
12.6577
 20
2.3203
 30
0.0
 10
12.749
 20
2.2789
 30
0.0
 10
12.8703
 20
2.2605
 30
0.0
 10
12.8703
 20
2.2605
 30
0.0
 10
12.8703
 20
2.2605
 30
0.0
 10
12.8261
 20
2.0127
 30
0.0
 10
12.8261
 20
2.0127
 30
0.0
 10
12.8261
 20
2.0127
 30
0.0
 10
12.6596
 20
2.0428
 30
0.0
 10
12.5307
 20
2.1119
 30
0.0
 10
12.4395
 20
2.2192
 30
0.0
 10
12.4395
 20
2.2192
 30
0.0
 10
12.3482
 20
2.3269
 30
0.0
 10
12.3021
 20
2.4605
 30
0.0
 10
12.3021
 20
2.6204
 30
0.0
 10
12.3021
 20
2.6204
 30
0.0
 10
12.3021
 20
2.7304
 30
0.0
 10
12.3261
 20
2.832
 30
0.0
 10
12.3731
 20
2.9247
 30
0.0
 10
12.3731
 20
2.9247
 30
0.0
 10
12.4206
 20
3.0174
 30
0.0
 10
12.4851
 20
3.0884
 30
0.0
 10
12.5669
 20
3.1378
 30
0.0
 10
12.5669
 20
3.1378
 30
0.0
 10
12.6488
 20
3.1867
 30
0.0
 10
12.7353
 20
3.2116
 30
0.0
 10
12.8275
 20
3.2116
 30
0.0
 10
12.8275
 20
3.2116
 30
0.0
 10
12.9145
 20
3.2116
 30
0.0
 10
12.994
 20
3.1881
 30
0.0
 10
13.066
 20
3.1411
 30
0.0
 10
13.066
 20
3.1411
 30
0.0
 10
13.1375
 20
3.094
 30
0.0
 10
13.1944
 20
3.0249
 30
0.0
 10
13.2367
 20
2.9332
 30
0.0
 10
13.2367
 20
2.9332
 30
0.0
 10
13.264
 20
3.0526
 30
0.0
 10
13.3214
 20
3.1453
 30
0.0
 10
13.4084
 20
3.2116
 30
0.0
 10
13.4084
 20
3.2116
 30
0.0
 10
13.495
 20
3.2775
 30
0.0
 10
13.6036
 20
3.3104
 30
0.0
 10
13.7339
 20
3.3104
 30
0.0
 10
13.7339
 20
3.3104
 30
0.0
 10
13.9103
 20
3.3104
 30
0.0
 10
14.0599
 20
3.2464
 30
0.0
 10
14.1826
 20
3.1176
 30
0.0
 10
14.1826
 20
3.1176
 30
0.0
 10
14.3054
 20
2.9891
 30
0.0
 10
14.3665
 20
2.8264
 30
0.0
 10
14.3665
 20
2.6298
 30
0.0
 10
14.3665
 20
2.6298
 30
0.0
 10
14.3665
 20
2.4525
 30
0.0
 10
14.3139
 20
2.3052
 30
0.0
 10
14.208
 20
2.1881
 30
0.0
 10
14.208
 20
2.1881
 30
0.0
 10
14.1027
 20
2.071
 30
0.0
 10
13.9658
 20
2.0042
 30
0.0
 10
13.7974
 20
1.9877
 30
0.0
  0
SPLINE
  5
146
330
1F
100
AcDbEntity
  8
AXIS
 62
   250
100
AcDbSpline
210
0.0
220
0.0
230
1.0
 70
    11
 71
     3
 72
    48
 73
    44
 74
     0
 42
0.0000000001
 43
0.0000000001
 40
0.0
 40
0.0
 40
0.0
 40
0.0
 40
0.0833333333333333
 40
0.0833333333333333
 40
0.0833333333333333
 40
0.0833333333333333
 40
0.1666666666666667
 40
0.1666666666666667
 40
0.1666666666666667
 40
0.1666666666666667
 40
0.25
 40
0.25
 40
0.25
 40
0.25
 40
0.3333333333333333
 40
0.3333333333333333
 40
0.3333333333333333
 40
0.3333333333333333
 40
0.4166666666666667
 40
0.4166666666666667
 40
0.4166666666666667
 40
0.4166666666666667
 40
0.5
 40
0.5
 40
0.5
 40
0.5
 40
0.5833333333333334
 40
0.5833333333333334
 40
0.5833333333333334
 40
0.5833333333333334
 40
0.6666666666666666
 40
0.6666666666666666
 40
0.6666666666666666
 40
0.6666666666666666
 40
0.75
 40
0.75
 40
0.75
 40
0.75
 40
0.8333333333333334
 40
0.8333333333333334
 40
0.8333333333333334
 40
0.8333333333333334
 40
1.0
 40
1.0
 40
1.0
 40
1.0
 10
14.3308
 20
4.3508
 30
0.0
 10
14.3308
 20
4.3508
 30
0.0
 10
13.8473
 20
4.3508
 30
0.0
 10
13.8473
 20
4.3508
 30
0.0
 10
13.8473
 20
4.3508
 30
0.0
 10
13.8473
 20
4.3508
 30
0.0
 10
13.8473
 20
3.4745
 30
0.0
 10
13.8473
 20
3.4745
 30
0.0
 10
13.8473
 20
3.4745
 30
0.0
 10
13.8473
 20
3.4745
 30
0.0
 10
13.6196
 20
3.4745
 30
0.0
 10
13.6196
 20
3.4745
 30
0.0
 10
13.6196
 20
3.4745
 30
0.0
 10
13.6196
 20
3.4745
 30
0.0
 10
12.3106
 20
4.3965
 30
0.0
 10
12.3106
 20
4.3965
 30
0.0
 10
12.3106
 20
4.3965
 30
0.0
 10
12.3106
 20
4.3965
 30
0.0
 10
12.3106
 20
4.5992
 30
0.0
 10
12.3106
 20
4.5992
 30
0.0
 10
12.3106
 20
4.5992
 30
0.0
 10
12.3106
 20
4.5992
 30
0.0
 10
13.6196
 20
4.5992
 30
0.0
 10
13.6196
 20
4.5992
 30
0.0
 10
13.6196
 20
4.5992
 30
0.0
 10
13.6196
 20
4.5992
 30
0.0
 10
13.6196
 20
4.872
 30
0.0
 10
13.6196
 20
4.872
 30
0.0
 10
13.6196
 20
4.872
 30
0.0
 10
13.6196
 20
4.872
 30
0.0
 10
13.8473
 20
4.872
 30
0.0
 10
13.8473
 20
4.872
 30
0.0
 10
13.8473
 20
4.872
 30
0.0
 10
13.8473
 20
4.872
 30
0.0
 10
13.8473
 20
4.5992
 30
0.0
 10
13.8473
 20
4.5992
 30
0.0
 10
13.8473
 20
4.5992
 30
0.0
 10
13.8473
 20
4.5992
 30
0.0
 10
14.3308
 20
4.5992
 30
0.0
 10
14.3308
 20
4.5992
 30
0.0
 10
14.3308
 20
4.5992
 30
0.0
 10
14.3308
 20
4.5992
 30
0.0
 10
14.3308
 20
4.3508
 30
0.0
 10
14.3308
 20
4.3508
 30
0.0
  0
SPLINE
  5
147
330
1F
100
AcDbEntity
  8
AXIS
 62
   250
100
AcDbSpline
210
0.0
220
0.0
230
1.0
 70
    11
 71
     3
 72
    16
 73
    12
 74
     0
 42
0.0000000001
 43
0.0000000001
 40
0.0
 40
0.0
 40
0.0
 40
0.0
 40
0.25
 40
0.25
 40
0.25
 40
0.25
 40
0.5
 40
0.5
 40
0.5
 40
0.5
 40
1.0
 40
1.0
 40
1.0
 40
1.0
 10
13.6196
 20
4.3508
 30
0.0
 10
13.6196
 20
4.3508
 30
0.0
 10
12.709
 20
4.3508
 30
0.0
 10
12.709
 20
4.3508
 30
0.0
 10
12.709
 20
4.3508
 30
0.0
 10
12.709
 20
4.3508
 30
0.0
 10
13.6196
 20
3.7187
 30
0.0
 10
13.6196
 20
3.7187
 30
0.0
 10
13.6196
 20
3.7187
 30
0.0
 10
13.6196
 20
3.7187
 30
0.0
 10
13.6196
 20
4.3508
 30
0.0
 10
13.6196
 20
4.3508
 30
0.0
  0
SPLINE
  5
148
330
1F
100
AcDbEntity
  8
AXIS
 62
   250
100
AcDbSpline
210
0.0
220
0.0
230
1.0
 70
    11
 71
     3
 72
    80
 73
    76
 74
     0
 42
0.0000000001
 43
0.0000000001
 40
0.0
 40
0.0
 40
0.0
 40
0.0
 40
0.05
 40
0.05
 40
0.05
 40
0.05
 40
0.1
 40
0.1
 40
0.1
 40
0.1
 40
0.15
 40
0.15
 40
0.15
 40
0.15
 40
0.2
 40
0.2
 40
0.2
 40
0.2
 40
0.25
 40
0.25
 40
0.25
 40
0.25
 40
0.3
 40
0.3
 40
0.3
 40
0.3
 40
0.35
 40
0.35
 40
0.35
 40
0.35
 40
0.4
 40
0.4
 40
0.4
 40
0.4
 40
0.45
 40
0.45
 40
0.45
 40
0.45
 40
0.5
 40
0.5
 40
0.5
 40
0.5
 40
0.55
 40
0.55
 40
0.55
 40
0.55
 40
0.6
 40
0.6
 40
0.6
 40
0.6
 40
0.65
 40
0.65
 40
0.65
 40
0.65
 40
0.7
 40
0.7
 40
0.7
 40
0.7
 40
0.75
 40
0.75
 40
0.75
 40
0.75
 40
0.8
 40
0.8
 40
0.8
 40
0.8
 40
0.85
 40
0.85
 40
0.85
 40
0.85
 40
0.9
 40
0.9
 40
0.9
 40
0.9
 40
1.0
 40
1.0
 40
1.0
 40
1.0
 10
12.8054
 20
6.4124
 30
0.0
 10
12.8054
 20
6.4124
 30
0.0
 10
12.8247
 20
6.166
 30
0.0
 10
12.8247
 20
6.166
 30
0.0
 10
12.8247
 20
6.166
 30
0.0
 10
12.7273
 20
6.1439
 30
0.0
 10
12.6563
 20
6.1128
 30
0.0
 10
12.6126
 20
6.0724
 30
0.0
 10
12.6126
 20
6.0724
 30
0.0
 10
12.5415
 20
6.0051
 30
0.0
 10
12.5062
 20
5.9223
 30
0.0
 10
12.5062
 20
5.824
 30
0.0
 10
12.5062
 20
5.824
 30
0.0
 10
12.5062
 20
5.745
 30
0.0
 10
12.5284
 20
5.6759
 30
0.0
 10
12.5726
 20
5.6161
 30
0.0
 10
12.5726
 20
5.6161
 30
0.0
 10
12.6295
 20
5.538
 30
0.0
 10
12.7127
 20
5.4764
 30
0.0
 10
12.8219
 20
5.4313
 30
0.0
 10
12.8219
 20
5.4313
 30
0.0
 10
12.931
 20
5.3866
 30
0.0
 10
13.0867
 20
5.3631
 30
0.0
 10
13.2889
 20
5.3612
 30
0.0
 10
13.2889
 20
5.3612
 30
0.0
 10
13.1982
 20
5.4209
 30
0.0
 10
13.1304
 20
5.4938
 30
0.0
 10
13.0862
 20
5.5804
 30
0.0
 10
13.0862
 20
5.5804
 30
0.0
 10
13.0425
 20
5.6664
 30
0.0
 10
13.0204
 20
5.7572
 30
0.0
 10
13.0204
 20
5.8518
 30
0.0
 10
13.0204
 20
5.8518
 30
0.0
 10
13.0204
 20
6.0173
 30
0.0
 10
13.081
 20
6.158
 30
0.0
 10
13.2029
 20
6.2742
 30
0.0
 10
13.2029
 20
6.2742
 30
0.0
 10
13.3247
 20
6.3903
 30
0.0
 10
13.4818
 20
6.4487
 30
0.0
 10
13.6746
 20
6.4487
 30
0.0
 10
13.6746
 20
6.4487
 30
0.0
 10
13.8016
 20
6.4487
 30
0.0
 10
13.9192
 20
6.4209
 30
0.0
 10
14.0284
 20
6.3663
 30
0.0
 10
14.0284
 20
6.3663
 30
0.0
 10
14.137
 20
6.3118
 30
0.0
 10
14.2207
 20
6.2365
 30
0.0
 10
14.2786
 20
6.141
 30
0.0
 10
14.2786
 20
6.141
 30
0.0
 10
14.3364
 20
6.0456
 30
0.0
 10
14.3651
 20
5.9374
 30
0.0
 10
14.3651
 20
5.816
 30
0.0
 10
14.3651
 20
5.816
 30
0.0
 10
14.3651
 20
5.6091
 30
0.0
 10
14.2894
 20
5.4407
 30
0.0
 10
14.137
 20
5.3104
 30
0.0
 10
14.137
 20
5.3104
 30
0.0
 10
13.9851
 20
5.1796
 30
0.0
 10
13.7344
 20
5.1147
 30
0.0
 10
13.3854
 20
5.1147
 30
0.0
 10
13.3854
 20
5.1147
 30
0.0
 10
12.995
 20
5.1147
 30
0.0
 10
12.7113
 20
5.1867
 30
0.0
 10
12.534
 20
5.3311
 30
0.0
 10
12.534
 20
5.3311
 30
0.0
 10
12.3797
 20
5.4567
 30
0.0
 10
12.3021
 20
5.626
 30
0.0
 10
12.3021
 20
5.8395
 30
0.0
 10
12.3021
 20
5.8395
 30
0.0
 10
12.3021
 20
5.9981
 30
0.0
 10
12.3468
 20
6.1283
 30
0.0
 10
12.4362
 20
6.2299
 30
0.0
 10
12.4362
 20
6.2299
 30
0.0
 10
12.5251
 20
6.3315
 30
0.0
 10
12.6483
 20
6.3922
 30
0.0
 10
12.8054
 20
6.4124
 30
0.0
  0
SPLINE
  5
149
330
1F
100
AcDbEntity
  8
AXIS
 62
   250
100
AcDbSpline
210
0.0
220
0.0
230
1.0
 70
    11
 71
     3
 72
    40
 73
    36
 74
     0
 42
0.0000000001
 43
0.0000000001
 40
0.0
 40
0.0
 40
0.0
 40
0.0
 40
0.1
 40
0.1
 40
0.1
 40
0.1
 40
0.2
 40
0.2
 40
0.2
 40
0.2
 40
0.3
 40
0.3
 40
0.3
 40
0.3
 40
0.4
 40
0.4
 40
0.4
 40
0.4
 40
0.5
 40
0.5
 40
0.5
 40
0.5
 40
0.6
 40
0.6
 40
0.6
 40
0.6
 40
0.7
 40
0.7
 40
0.7
 40
0.7
 40
0.8
 40
0.8
 40
0.8
 40
0.8
 40
1.0
 40
1.0
 40
1.0
 40
1.0
 10
13.676
 20
5.3997
 30
0.0
 10
13.7617
 20
5.3997
 30
0.0
 10
13.8435
 20
5.4181
 30
0.0
 10
13.9216
 20
5.4543
 30
0.0
 10
13.9216
 20
5.4543
 30
0.0
 10
13.9997
 20
5.4905
 30
0.0
 10
14.0589
 20
5.5413
 30
0.0
 10
14.0998
 20
5.6062
 30
0.0
 10
14.0998
 20
5.6062
 30
0.0
 10
14.1408
 20
5.6716
 30
0.0
 10
14.1615
 20
5.7403
 30
0.0
 10
14.1615
 20
5.8118
 30
0.0
 10
14.1615
 20
5.8118
 30
0.0
 10
14.1615
 20
5.9167
 30
0.0
 10
14.1191
 20
6.0065
 30
0.0
 10
14.0345
 20
6.0818
 30
0.0
 10
14.0345
 20
6.0818
 30
0.0
 10
13.9498
 20
6.157
 30
0.0
 10
13.835
 20
6.1947
 30
0.0
 10
13.6902
 20
6.1947
 30
0.0
 10
13.6902
 20
6.1947
 30
0.0
 10
13.5505
 20
6.1947
 30
0.0
 10
13.4404
 20
6.1575
 30
0.0
 10
13.36
 20
6.0832
 30
0.0
 10
13.36
 20
6.0832
 30
0.0
 10
13.2795
 20
6.0089
 30
0.0
 10
13.2395
 20
5.9153
 30
0.0
 10
13.2395
 20
5.8024
 30
0.0
 10
13.2395
 20
5.8024
 30
0.0
 10
13.2395
 20
5.69
 30
0.0
 10
13.2795
 20
5.5949
 30
0.0
 10
13.36
 20
5.5169
 30
0.0
 10
13.36
 20
5.5169
 30
0.0
 10
13.4404
 20
5.4388
 30
0.0
 10
13.5458
 20
5.3997
 30
0.0
 10
13.676
 20
5.3997
 30
0.0
  0
SPLINE
  5
14A
330
1F
100
AcDbEntity
  8
AXIS
 62
   250
100
AcDbSpline
210
0.0
220
0.0
230
1.0
 70
    11
 71
     3
 72
    84
 73
    80
 74
     0
 42
0.0000000001
 43
0.0000000001
 40
0.0
 40
0.0
 40
0.0
 40
0.0
 40
0.0476190476190476
 40
0.0476190476190476
 40
0.0476190476190476
 40
0.0476190476190476
 40
0.0952380952380952
 40
0.0952380952380952
 40
0.0952380952380952
 40
0.0952380952380952
 40
0.1428571428571428
 40
0.1428571428571428
 40
0.1428571428571428
 40
0.1428571428571428
 40
0.1904761904761905
 40
0.1904761904761905
 40
0.1904761904761905
 40
0.1904761904761905
 40
0.2380952380952381
 40
0.2380952380952381
 40
0.2380952380952381
 40
0.2380952380952381
 40
0.2857142857142857
 40
0.2857142857142857
 40
0.2857142857142857
 40
0.2857142857142857
 40
0.3333333333333333
 40
0.3333333333333333
 40
0.3333333333333333
 40
0.3333333333333333
 40
0.3809523809523809
 40
0.3809523809523809
 40
0.3809523809523809
 40
0.3809523809523809
 40
0.4285714285714285
 40
0.4285714285714285
 40
0.4285714285714285
 40
0.4285714285714285
 40
0.4761904761904762
 40
0.4761904761904762
 40
0.4761904761904762
 40
0.4761904761904762
 40
0.5238095238095238
 40
0.5238095238095238
 40
0.5238095238095238
 40
0.5238095238095238
 40
0.5714285714285714
 40
0.5714285714285714
 40
0.5714285714285714
 40
0.5714285714285714
 40
0.6190476190476191
 40
0.6190476190476191
 40
0.6190476190476191
 40
0.6190476190476191
 40
0.6666666666666666
 40
0.6666666666666666
 40
0.6666666666666666
 40
0.6666666666666666
 40
0.7142857142857143
 40
0.7142857142857143
 40
0.7142857142857143
 40
0.7142857142857143
 40
0.7619047619047619
 40
0.7619047619047619
 40
0.7619047619047619
 40
0.7619047619047619
 40
0.8095238095238095
 40
0.8095238095238095
 40
0.8095238095238095
 40
0.8095238095238095
 40
0.8571428571428571
 40
0.8571428571428571
 40
0.8571428571428571
 40
0.8571428571428571
 40
0.9047619047619048
 40
0.9047619047619048
 40
0.9047619047619048
 40
0.9047619047619048
 40
1.0
 40
1.0
 40
1.0
 40
1.0
 10
8.3612
 20
-15.698
 30
0.0
 10
8.3612
 20
-15.698
 30
0.0
 10
8.5926
 20
-15.4389
 30
0.0
 10
8.5926
 20
-15.4389
 30
0.0
 10
8.5926
 20
-15.4389
 30
0.0
 10
8.5926
 20
-15.4389
 30
0.0
 10
8.729
 20
-15.5546
 30
0.0
 10
8.729
 20
-15.5546
 30
0.0
 10
8.729
 20
-15.5546
 30
0.0
 10
8.729
 20
-15.5546
 30
0.0
 10
8.4868
 20
-15.8274
 30
0.0
 10
8.4868
 20
-15.8274
 30
0.0
 10
8.4868
 20
-15.8274
 30
0.0
 10
8.5658
 20
-15.945
 30
0.0
 10
8.6189
 20
-16.048
 30
0.0
 10
8.6467
 20
-16.1359
 30
0.0
 10
8.6467
 20
-16.1359
 30
0.0
 10
8.6834
 20
-16.2517
 30
0.0
 10
8.7017
 20
-16.3815
 30
0.0
 10
8.7017
 20
-16.5245
 30
0.0
 10
8.7017
 20
-16.5245
 30
0.0
 10
8.7017
 20
-16.7314
 30
0.0
 10
8.6599
 20
-16.9158
 30
0.0
 10
8.5761
 20
-17.0771
 30
0.0
 10
8.5761
 20
-17.0771
 30
0.0
 10
8.4924
 20
-17.239
 30
0.0
 10
8.3753
 20
-17.3612
 30
0.0
 10
8.2243
 20
-17.444
 30
0.0
 10
8.2243
 20
-17.444
 30
0.0
 10
8.0728
 20
-17.5263
 30
0.0
 10
7.9125
 20
-17.5677
 30
0.0
 10
7.7427
 20
-17.5677
 30
0.0
 10
7.7427
 20
-17.5677
 30
0.0
 10
7.6157
 20
-17.5677
 30
0.0
 10
7.5009
 20
-17.5499
 30
0.0
 10
7.3979
 20
-17.5141
 30
0.0
 10
7.3979
 20
-17.5141
 30
0.0
 10
7.3189
 20
-17.4864
 30
0.0
 10
7.2267
 20
-17.4337
 30
0.0
 10
7.1208
 20
-17.3556
 30
0.0
 10
7.1208
 20
-17.3556
 30
0.0
 10
7.1208
 20
-17.3556
 30
0.0
 10
6.8894
 20
-17.6148
 30
0.0
 10
6.8894
 20
-17.6148
 30
0.0
 10
6.8894
 20
-17.6148
 30
0.0
 10
6.8894
 20
-17.6148
 30
0.0
 10
6.753
 20
-17.4991
 30
0.0
 10
6.753
 20
-17.4991
 30
0.0
 10
6.753
 20
-17.4991
 30
0.0
 10
6.753
 20
-17.4991
 30
0.0
 10
6.9957
 20
-17.2277
 30
0.0
 10
6.9957
 20
-17.2277
 30
0.0
 10
6.9957
 20
-17.2277
 30
0.0
 10
6.9054
 20
-17.0908
 30
0.0
 10
6.8452
 20
-16.9737
 30
0.0
 10
6.8151
 20
-16.8768
 30
0.0
 10
6.8151
 20
-16.8768
 30
0.0
 10
6.785
 20
-16.7799
 30
0.0
 10
6.7695
 20
-16.6632
 30
0.0
 10
6.7695
 20
-16.5273
 30
0.0
 10
6.7695
 20
-16.5273
 30
0.0
 10
6.7695
 20
-16.3199
 30
0.0
 10
6.8109
 20
-16.135
 30
0.0
 10
6.8936
 20
-15.9727
 30
0.0
 10
6.8936
 20
-15.9727
 30
0.0
 10
6.9764
 20
-15.8104
 30
0.0
 10
7.0921
 20
-15.6877
 30
0.0
 10
7.2417
 20
-15.604
 30
0.0
 10
7.2417
 20
-15.604
 30
0.0
 10
7.3908
 20
-15.5207
 30
0.0
 10
7.5569
 20
-15.4788
 30
0.0
 10
7.7398
 20
-15.4788
 30
0.0
 10
7.7398
 20
-15.4788
 30
0.0
 10
7.8631
 20
-15.4788
 30
0.0
 10
7.9708
 20
-15.4948
 30
0.0
 10
8.063
 20
-15.5278
 30
0.0
 10
8.063
 20
-15.5278
 30
0.0
 10
8.1552
 20
-15.5602
 30
0.0
 10
8.2549
 20
-15.6171
 30
0.0
 10
8.3612
 20
-15.698
 30
0.0
  0
SPLINE
  5
14B
330
1F
100
AcDbEntity
  8
AXIS
 62
   250
100
AcDbSpline
210
0.0
220
0.0
230
1.0
 70
    11
 71
     3
 72
    32
 73
    28
 74
     0
 42
0.0000000001
 43
0.0000000001
 40
0.0
 40
0.0
 40
0.0
 40
0.0
 40
0.125
 40
0.125
 40
0.125
 40
0.125
 40
0.25
 40
0.25
 40
0.25
 40
0.25
 40
0.375
 40
0.375
 40
0.375
 40
0.375
 40
0.5
 40
0.5
 40
0.5
 40
0.5
 40
0.625
 40
0.625
 40
0.625
 40
0.625
 40
0.75
 40
0.75
 40
0.75
 40
0.75
 40
1.0
 40
1.0
 40
1.0
 40
1.0
 10
8.1961
 20
-15.8838
 30
0.0
 10
8.1095
 20
-15.8161
 30
0.0
 10
8.0338
 20
-15.7695
 30
0.0
 10
7.9694
 20
-15.7446
 30
0.0
 10
7.9694
 20
-15.7446
 30
0.0
 10
7.9045
 20
-15.7201
 30
0.0
 10
7.8283
 20
-15.7074
 30
0.0
 10
7.7412
 20
-15.7074
 30
0.0
 10
7.7412
 20
-15.7074
 30
0.0
 10
7.5399
 20
-15.7074
 30
0.0
 10
7.3739
 20
-15.7756
 30
0.0
 10
7.2422
 20
-15.912
 30
0.0
 10
7.2422
 20
-15.912
 30
0.0
 10
7.1109
 20
-16.0485
 30
0.0
 10
7.0451
 20
-16.2521
 30
0.0
 10
7.0451
 20
-16.5235
 30
0.0
 10
7.0451
 20
-16.5235
 30
0.0
 10
7.0451
 20
-16.6298
 30
0.0
 10
7.0554
 20
-16.7244
 30
0.0
 10
7.0757
 20
-16.8072
 30
0.0
 10
7.0757
 20
-16.8072
 30
0.0
 10
7.0903
 20
-16.8688
 30
0.0
 10
7.1208
 20
-16.9445
 30
0.0
 10
7.1679
 20
-17.0343
 30
0.0
 10
7.1679
 20
-17.0343
 30
0.0
 10
7.1679
 20
-17.0343
 30
0.0
 10
8.1961
 20
-15.8838
 30
0.0
 10
8.1961
 20
-15.8838
 30
0.0
  0
SPLINE
  5
14C
330
1F
100
AcDbEntity
  8
AXIS
 62
   250
100
AcDbSpline
210
0.0
220
0.0
230
1.0
 70
    11
 71
     3
 72
    28
 73
    24
 74
     0
 42
0.0000000001
 43
0.0000000001
 40
0.0
 40
0.0
 40
0.0
 40
0.0
 40
0.1428571428571428
 40
0.1428571428571428
 40
0.1428571428571428
 40
0.1428571428571428
 40
0.2857142857142857
 40
0.2857142857142857
 40
0.2857142857142857
 40
0.2857142857142857
 40
0.4285714285714285
 40
0.4285714285714285
 40
0.4285714285714285
 40
0.4285714285714285
 40
0.5714285714285714
 40
0.5714285714285714
 40
0.5714285714285714
 40
0.5714285714285714
 40
0.7142857142857143
 40
0.7142857142857143
 40
0.7142857142857143
 40
0.7142857142857143
 40
1.0
 40
1.0
 40
1.0
 40
1.0
 10
8.309
 20
-16.0259
 30
0.0
 10
8.309
 20
-16.0259
 30
0.0
 10
7.285
 20
-17.1722
 30
0.0
 10
7.285
 20
-17.1722
 30
0.0
 10
7.285
 20
-17.1722
 30
0.0
 10
7.3555
 20
-17.23
 30
0.0
 10
7.4209
 20
-17.2705
 30
0.0
 10
7.4807
 20
-17.2935
 30
0.0
 10
7.4807
 20
-17.2935
 30
0.0
 10
7.5587
 20
-17.3241
 30
0.0
 10
7.6434
 20
-17.3391
 30
0.0
 10
7.7342
 20
-17.3391
 30
0.0
 10
7.7342
 20
-17.3391
 30
0.0
 10
7.9346
 20
-17.3391
 30
0.0
 10
8.0997
 20
-17.2686
 30
0.0
 10
8.2304
 20
-17.127
 30
0.0
 10
8.2304
 20
-17.127
 30
0.0
 10
8.3607
 20
-16.9854
 30
0.0
 10
8.4261
 20
-16.7869
 30
0.0
 10
8.4261
 20
-16.5315
 30
0.0
 10
8.4261
 20
-16.5315
 30
0.0
 10
8.4261
 20
-16.3406
 30
0.0
 10
8.3871
 20
-16.1717
 30
0.0
 10
8.309
 20
-16.0259
 30
0.0
  0
SPLINE
  5
14D
330
1F
100
AcDbEntity
  8
AXIS
 62
   250
100
AcDbSpline
210
0.0
220
0.0
230
1.0
 70
    11
 71
     3
 72
    68
 73
    64
 74
     0
 42
0.0000000001
 43
0.0000000001
 40
0.0
 40
0.0
 40
0.0
 40
0.0
 40
0.0588235294117647
 40
0.0588235294117647
 40
0.0588235294117647
 40
0.0588235294117647
 40
0.1176470588235294
 40
0.1176470588235294
 40
0.1176470588235294
 40
0.1176470588235294
 40
0.1764705882352941
 40
0.1764705882352941
 40
0.1764705882352941
 40
0.1764705882352941
 40
0.2352941176470588
 40
0.2352941176470588
 40
0.2352941176470588
 40
0.2352941176470588
 40
0.2941176470588235
 40
0.2941176470588235
 40
0.2941176470588235
 40
0.2941176470588235
 40
0.3529411764705883
 40
0.3529411764705883
 40
0.3529411764705883
 40
0.3529411764705883
 40
0.4117647058823529
 40
0.4117647058823529
 40
0.4117647058823529
 40
0.4117647058823529
 40
0.4705882352941176
 40
0.4705882352941176
 40
0.4705882352941176
 40
0.4705882352941176
 40
0.5294117647058824
 40
0.5294117647058824
 40
0.5294117647058824
 40
0.5294117647058824
 40
0.5882352941176471
 40
0.5882352941176471
 40
0.5882352941176471
 40
0.5882352941176471
 40
0.6470588235294118
 40
0.6470588235294118
 40
0.6470588235294118
 40
0.6470588235294118
 40
0.7058823529411765
 40
0.7058823529411765
 40
0.7058823529411765
 40
0.7058823529411765
 40
0.7647058823529411
 40
0.7647058823529411
 40
0.7647058823529411
 40
0.7647058823529411
 40
0.8235294117647058
 40
0.8235294117647058
 40
0.8235294117647058
 40
0.8235294117647058
 40
0.8823529411764706
 40
0.8823529411764706
 40
0.8823529411764706
 40
0.8823529411764706
 40
1.0
 40
1.0
 40
1.0
 40
1.0
 10
9.333
 20
-16.4379
 30
0.0
 10
9.2299
 20
-16.4003
 30
0.0
 10
9.1537
 20
-16.3467
 30
0.0
 10
9.1039
 20
-16.2766
 30
0.0
 10
9.1039
 20
-16.2766
 30
0.0
 10
9.0545
 20
-16.207
 30
0.0
 10
9.0296
 20
-16.1232
 30
0.0
 10
9.0296
 20
-16.0259
 30
0.0
 10
9.0296
 20
-16.0259
 30
0.0
 10
9.0296
 20
-15.8787
 30
0.0
 10
9.0823
 20
-15.7554
 30
0.0
 10
9.1881
 20
-15.6552
 30
0.0
 10
9.1881
 20
-15.6552
 30
0.0
 10
9.2939
 20
-15.555
 30
0.0
 10
9.4341
 20
-15.5047
 30
0.0
 10
9.6095
 20
-15.5047
 30
0.0
 10
9.6095
 20
-15.5047
 30
0.0
 10
9.7859
 20
-15.5047
 30
0.0
 10
9.928
 20
-15.556
 30
0.0
 10
10.0357
 20
-15.6585
 30
0.0
 10
10.0357
 20
-15.6585
 30
0.0
 10
10.1429
 20
-15.7611
 30
0.0
 10
10.1966
 20
-15.8857
 30
0.0
 10
10.1966
 20
-16.0329
 30
0.0
 10
10.1966
 20
-16.0329
 30
0.0
 10
10.1966
 20
-16.1265
 30
0.0
 10
10.1721
 20
-16.2079
 30
0.0
 10
10.1232
 20
-16.2775
 30
0.0
 10
10.1232
 20
-16.2775
 30
0.0
 10
10.0738
 20
-16.3467
 30
0.0
 10
9.9995
 20
-16.4003
 30
0.0
 10
9.8993
 20
-16.4379
 30
0.0
 10
9.8993
 20
-16.4379
 30
0.0
 10
10.023
 20
-16.4784
 30
0.0
 10
10.1175
 20
-16.5433
 30
0.0
 10
10.1824
 20
-16.6336
 30
0.0
 10
10.1824
 20
-16.6336
 30
0.0
 10
10.2469
 20
-16.7234
 30
0.0
 10
10.2793
 20
-16.8311
 30
0.0
 10
10.2793
 20
-16.9558
 30
0.0
 10
10.2793
 20
-16.9558
 30
0.0
 10
10.2793
 20
-17.1289
 30
0.0
 10
10.2182
 20
-17.2738
 30
0.0
 10
10.0964
 20
-17.3913
 30
0.0
 10
10.0964
 20
-17.3913
 30
0.0
 10
9.9741
 20
-17.5089
 30
0.0
 10
9.8132
 20
-17.5677
 30
0.0
 10
9.6138
 20
-17.5677
 30
0.0
 10
9.6138
 20
-17.5677
 30
0.0
 10
9.4143
 20
-17.5677
 30
0.0
 10
9.2539
 20
-17.5089
 30
0.0
 10
9.1316
 20
-17.3909
 30
0.0
 10
9.1316
 20
-17.3909
 30
0.0
 10
9.0093
 20
-17.2728
 30
0.0
 10
8.9482
 20
-17.1256
 30
0.0
 10
8.9482
 20
-16.9492
 30
0.0
 10
8.9482
 20
-16.9492
 30
0.0
 10
8.9482
 20
-16.818
 30
0.0
 10
8.9816
 20
-16.7079
 30
0.0
 10
9.0484
 20
-16.619
 30
0.0
 10
9.0484
 20
-16.619
 30
0.0
 10
9.1147
 20
-16.5306
 30
0.0
 10
9.2097
 20
-16.4699
 30
0.0
 10
9.333
 20
-16.4379
 30
0.0
  0
SPLINE
  5
14E
330
1F
100
AcDbEntity
  8
AXIS
 62
   250
100
AcDbSpline
210
0.0
220
0.0
230
1.0
 70
    11
 71
     3
 72
    36
 73
    32
 74
     0
 42
0.0000000001
 43
0.0000000001
 40
0.0
 40
0.0
 40
0.0
 40
0.0
 40
0.1111111111111111
 40
0.1111111111111111
 40
0.1111111111111111
 40
0.1111111111111111
 40
0.2222222222222222
 40
0.2222222222222222
 40
0.2222222222222222
 40
0.2222222222222222
 40
0.3333333333333333
 40
0.3333333333333333
 40
0.3333333333333333
 40
0.3333333333333333
 40
0.4444444444444444
 40
0.4444444444444444
 40
0.4444444444444444
 40
0.4444444444444444
 40
0.5555555555555556
 40
0.5555555555555556
 40
0.5555555555555556
 40
0.5555555555555556
 40
0.6666666666666666
 40
0.6666666666666666
 40
0.6666666666666666
 40
0.6666666666666666
 40
0.7777777777777778
 40
0.7777777777777778
 40
0.7777777777777778
 40
0.7777777777777778
 40
1.0
 40
1.0
 40
1.0
 40
1.0
 10
9.2831
 20
-16.0174
 30
0.0
 10
9.2831
 20
-16.1129
 30
0.0
 10
9.3141
 20
-16.191
 30
0.0
 10
9.3753
 20
-16.2517
 30
0.0
 10
9.3753
 20
-16.2517
 30
0.0
 10
9.4369
 20
-16.3123
 30
0.0
 10
9.5169
 20
-16.3429
 30
0.0
 10
9.6152
 20
-16.3429
 30
0.0
 10
9.6152
 20
-16.3429
 30
0.0
 10
9.7107
 20
-16.3429
 30
0.0
 10
9.7892
 20
-16.3128
 30
0.0
 10
9.8504
 20
-16.2526
 30
0.0
 10
9.8504
 20
-16.2526
 30
0.0
 10
9.9115
 20
-16.1924
 30
0.0
 10
9.9416
 20
-16.1185
 30
0.0
 10
9.9416
 20
-16.0315
 30
0.0
 10
9.9416
 20
-16.0315
 30
0.0
 10
9.9416
 20
-15.9403
 30
0.0
 10
9.9106
 20
-15.8641
 30
0.0
 10
9.8475
 20
-15.802
 30
0.0
 10
9.8475
 20
-15.802
 30
0.0
 10
9.7845
 20
-15.7399
 30
0.0
 10
9.7064
 20
-15.7088
 30
0.0
 10
9.6124
 20
-15.7088
 30
0.0
 10
9.6124
 20
-15.7088
 30
0.0
 10
9.5178
 20
-15.7088
 30
0.0
 10
9.4393
 20
-15.7394
 30
0.0
 10
9.3767
 20
-15.7996
 30
0.0
 10
9.3767
 20
-15.7996
 30
0.0
 10
9.3141
 20
-15.8603
 30
0.0
 10
9.2831
 20
-15.9332
 30
0.0
 10
9.2831
 20
-16.0174
 30
0.0
  0
SPLINE
  5
14F
330
1F
100
AcDbEntity
  8
AXIS
 62
   250
100
AcDbSpline
210
0.0
220
0.0
230
1.0
 70
    11
 71
     3
 72
    40
 73
    36
 74
     0
 42
0.0000000001
 43
0.0000000001
 40
0.0
 40
0.0
 40
0.0
 40
0.0
 40
0.1
 40
0.1
 40
0.1
 40
0.1
 40
0.2
 40
0.2
 40
0.2
 40
0.2
 40
0.3
 40
0.3
 40
0.3
 40
0.3
 40
0.4
 40
0.4
 40
0.4
 40
0.4
 40
0.5
 40
0.5
 40
0.5
 40
0.5
 40
0.6
 40
0.6
 40
0.6
 40
0.6
 40
0.7
 40
0.7
 40
0.7
 40
0.7
 40
0.8
 40
0.8
 40
0.8
 40
0.8
 40
1.0
 40
1.0
 40
1.0
 40
1.0
 10
9.2031
 20
-16.9506
 30
0.0
 10
9.2031
 20
-17.0212
 30
0.0
 10
9.2201
 20
-17.0898
 30
0.0
 10
9.2535
 20
-17.1557
 30
0.0
 10
9.2535
 20
-17.1557
 30
0.0
 10
9.2869
 20
-17.222
 30
0.0
 10
9.3367
 20
-17.2733
 30
0.0
 10
9.403
 20
-17.3095
 30
0.0
 10
9.403
 20
-17.3095
 30
0.0
 10
9.4694
 20
-17.3457
 30
0.0
 10
9.5404
 20
-17.3641
 30
0.0
 10
9.6166
 20
-17.3641
 30
0.0
 10
9.6166
 20
-17.3641
 30
0.0
 10
9.7351
 20
-17.3641
 30
0.0
 10
9.833
 20
-17.326
 30
0.0
 10
9.9101
 20
-17.2493
 30
0.0
 10
9.9101
 20
-17.2493
 30
0.0
 10
9.9872
 20
-17.1731
 30
0.0
 10
10.0258
 20
-17.0762
 30
0.0
 10
10.0258
 20
-16.9586
 30
0.0
 10
10.0258
 20
-16.9586
 30
0.0
 10
10.0258
 20
-16.8391
 30
0.0
 10
9.9863
 20
-16.7404
 30
0.0
 10
9.9068
 20
-16.6623
 30
0.0
 10
9.9068
 20
-16.6623
 30
0.0
 10
9.8273
 20
-16.5842
 30
0.0
 10
9.7276
 20
-16.5452
 30
0.0
 10
9.6081
 20
-16.5452
 30
0.0
 10
9.6081
 20
-16.5452
 30
0.0
 10
9.4915
 20
-16.5452
 30
0.0
 10
9.395
 20
-16.5837
 30
0.0
 10
9.3184
 20
-16.6609
 30
0.0
 10
9.3184
 20
-16.6609
 30
0.0
 10
9.2417
 20
-16.7385
 30
0.0
 10
9.2031
 20
-16.8349
 30
0.0
 10
9.2031
 20
-16.9506
 30
0.0
  0
SPLINE
  5
150
330
1F
100
AcDbEntity
  8
AXIS
 62
   250
100
AcDbSpline
210
0.0
220
0.0
230
1.0
 70
    11
 71
     3
 72
    92
 73
    88
 74
     0
 42
0.0000000001
 43
0.0000000001
 40
0.0
 40
0.0
 40
0.0
 40
0.0
 40
0.0434782608695652
 40
0.0434782608695652
 40
0.0434782608695652
 40
0.0434782608695652
 40
0.0869565217391304
 40
0.0869565217391304
 40
0.0869565217391304
 40
0.0869565217391304
 40
0.1304347826086956
 40
0.1304347826086956
 40
0.1304347826086956
 40
0.1304347826086956
 40
0.1739130434782609
 40
0.1739130434782609
 40
0.1739130434782609
 40
0.1739130434782609
 40
0.2173913043478261
 40
0.2173913043478261
 40
0.2173913043478261
 40
0.2173913043478261
 40
0.2608695652173913
 40
0.2608695652173913
 40
0.2608695652173913
 40
0.2608695652173913
 40
0.3043478260869565
 40
0.3043478260869565
 40
0.3043478260869565
 40
0.3043478260869565
 40
0.3478260869565217
 40
0.3478260869565217
 40
0.3478260869565217
 40
0.3478260869565217
 40
0.391304347826087
 40
0.391304347826087
 40
0.391304347826087
 40
0.391304347826087
 40
0.4347826086956522
 40
0.4347826086956522
 40
0.4347826086956522
 40
0.4347826086956522
 40
0.4782608695652174
 40
0.4782608695652174
 40
0.4782608695652174
 40
0.4782608695652174
 40
0.5217391304347826
 40
0.5217391304347826
 40
0.5217391304347826
 40
0.5217391304347826
 40
0.5652173913043478
 40
0.5652173913043478
 40
0.5652173913043478
 40
0.5652173913043478
 40
0.6086956521739131
 40
0.6086956521739131
 40
0.6086956521739131
 40
0.6086956521739131
 40
0.6521739130434783
 40
0.6521739130434783
 40
0.6521739130434783
 40
0.6521739130434783
 40
0.6956521739130435
 40
0.6956521739130435
 40
0.6956521739130435
 40
0.6956521739130435
 40
0.7391304347826086
 40
0.7391304347826086
 40
0.7391304347826086
 40
0.7391304347826086
 40
0.782608695652174
 40
0.782608695652174
 40
0.782608695652174
 40
0.782608695652174
 40
0.8260869565217391
 40
0.8260869565217391
 40
0.8260869565217391
 40
0.8260869565217391
 40
0.8695652173913043
 40
0.8695652173913043
 40
0.8695652173913043
 40
0.8695652173913043
 40
0.9130434782608695
 40
0.9130434782608695
 40
0.9130434782608695
 40
0.9130434782608695
 40
1.0
 40
1.0
 40
1.0
 40
1.0
 10
10.5206
 20
-17.0042
 30
0.0
 10
10.5206
 20
-17.0042
 30
0.0
 10
10.7812
 20
-16.9821
 30
0.0
 10
10.7812
 20
-16.9821
 30
0.0
 10
10.7812
 20
-16.9821
 30
0.0
 10
10.8005
 20
-17.1091
 30
0.0
 10
10.8452
 20
-17.2041
 30
0.0
 10
10.9153
 20
-17.2681
 30
0.0
 10
10.9153
 20
-17.2681
 30
0.0
 10
10.9858
 20
-17.3321
 30
0.0
 10
11.0705
 20
-17.3641
 30
0.0
 10
11.1697
 20
-17.3641
 30
0.0
 10
11.1697
 20
-17.3641
 30
0.0
 10
11.2892
 20
-17.3641
 30
0.0
 10
11.3903
 20
-17.3189
 30
0.0
 10
11.4726
 20
-17.2291
 30
0.0
 10
11.4726
 20
-17.2291
 30
0.0
 10
11.5554
 20
-17.1388
 30
0.0
 10
11.5968
 20
-17.0193
 30
0.0
 10
11.5968
 20
-16.8707
 30
0.0
 10
11.5968
 20
-16.8707
 30
0.0
 10
11.5968
 20
-16.7291
 30
0.0
 10
11.5573
 20
-16.6176
 30
0.0
 10
11.4778
 20
-16.5358
 30
0.0
 10
11.4778
 20
-16.5358
 30
0.0
 10
11.3983
 20
-16.4539
 30
0.0
 10
11.2944
 20
-16.413
 30
0.0
 10
11.1655
 20
-16.413
 30
0.0
 10
11.1655
 20
-16.413
 30
0.0
 10
11.0855
 20
-16.413
 30
0.0
 10
11.0136
 20
-16.4313
 30
0.0
 10
10.9491
 20
-16.4675
 30
0.0
 10
10.9491
 20
-16.4675
 30
0.0
 10
10.8847
 20
-16.5038
 30
0.0
 10
10.8344
 20
-16.5508
 30
0.0
 10
10.7977
 20
-16.6087
 30
0.0
 10
10.7977
 20
-16.6087
 30
0.0
 10
10.7977
 20
-16.6087
 30
0.0
 10
10.5648
 20
-16.5786
 30
0.0
 10
10.5648
 20
-16.5786
 30
0.0
 10
10.5648
 20
-16.5786
 30
0.0
 10
10.5648
 20
-16.5786
 30
0.0
 10
10.7605
 20
-15.5409
 30
0.0
 10
10.7605
 20
-15.5409
 30
0.0
 10
10.7605
 20
-15.5409
 30
0.0
 10
10.7605
 20
-15.5409
 30
0.0
 10
11.7652
 20
-15.5409
 30
0.0
 10
11.7652
 20
-15.5409
 30
0.0
 10
11.7652
 20
-15.5409
 30
0.0
 10
11.7652
 20
-15.5409
 30
0.0
 10
11.7652
 20
-15.778
 30
0.0
 10
11.7652
 20
-15.778
 30
0.0
 10
11.7652
 20
-15.778
 30
0.0
 10
11.7652
 20
-15.778
 30
0.0
 10
10.959
 20
-15.778
 30
0.0
 10
10.959
 20
-15.778
 30
0.0
 10
10.959
 20
-15.778
 30
0.0
 10
10.959
 20
-15.778
 30
0.0
 10
10.8499
 20
-16.3208
 30
0.0
 10
10.8499
 20
-16.3208
 30
0.0
 10
10.8499
 20
-16.3208
 30
0.0
 10
10.9712
 20
-16.2361
 30
0.0
 10
11.0987
 20
-16.1938
 30
0.0
 10
11.2318
 20
-16.1938
 30
0.0
 10
11.2318
 20
-16.1938
 30
0.0
 10
11.4082
 20
-16.1938
 30
0.0
 10
11.5568
 20
-16.2549
 30
0.0
 10
11.6782
 20
-16.3772
 30
0.0
 10
11.6782
 20
-16.3772
 30
0.0
 10
11.7995
 20
-16.4995
 30
0.0
 10
11.8602
 20
-16.6566
 30
0.0
 10
11.8602
 20
-16.8485
 30
0.0
 10
11.8602
 20
-16.8485
 30
0.0
 10
11.8602
 20
-17.0315
 30
0.0
 10
11.8066
 20
-17.1896
 30
0.0
 10
11.7003
 20
-17.3227
 30
0.0
 10
11.7003
 20
-17.3227
 30
0.0
 10
11.5705
 20
-17.4859
 30
0.0
 10
11.3936
 20
-17.5677
 30
0.0
 10
11.1697
 20
-17.5677
 30
0.0
 10
11.1697
 20
-17.5677
 30
0.0
 10
10.9858
 20
-17.5677
 30
0.0
 10
10.8358
 20
-17.5165
 30
0.0
 10
10.7196
 20
-17.4135
 30
0.0
 10
10.7196
 20
-17.4135
 30
0.0
 10
10.6034
 20
-17.3104
 30
0.0
 10
10.5371
 20
-17.174
 30
0.0
 10
10.5206
 20
-17.0042
 30
0.0
  0
SPLINE
  5
151
330
1F
100
AcDbEntity
  8
AXIS
 62
   250
100
AcDbSpline
210
0.0
220
0.0
230
1.0
 70
    11
 71
     3
 72
    20
 73
    16
 74
     0
 42
0.0000000001
 43
0.0000000001
 40
0.0
 40
0.0
 40
0.0
 40
0.0
 40
0.2
 40
0.2
 40
0.2
 40
0.2
 40
0.4
 40
0.4
 40
0.4
 40
0.4
 40
0.6
 40
0.6
 40
0.6
 40
0.6
 40
1.0
 40
1.0
 40
1.0
 40
1.0
 10
6.3867
 20
-18.7549
 30
0.0
 10
6.3867
 20
-18.7549
 30
0.0
 10
3.3907
 20
-18.3321
 30
0.0
 10
3.3907
 20
-18.3321
 30
0.0
 10
3.3907
 20
-18.3321
 30
0.0
 10
3.3907
 20
-18.3321
 30
0.0
 10
3.3907
 20
-18.2382
 30
0.0
 10
3.3907
 20
-18.2382
 30
0.0
 10
3.3907
 20
-18.2382
 30
0.0
 10
3.3907
 20
-18.2382
 30
0.0
 10
6.3867
 20
-17.7873
 30
0.0
 10
6.3867
 20
-17.7873
 30
0.0
 10
6.3867
 20
-17.7873
 30
0.0
 10
6.3867
 20
-17.7873
 30
0.0
 10
6.3867
 20
-18.7549
 30
0.0
 10
6.3867
 20
-18.7549
 30
0.0
  0
SPLINE
  5
152
330
1F
100
AcDbEntity
  8
AXIS
 62
   250
100
AcDbSpline
210
0.0
220
0.0
230
1.0
 70
    11
 71
     3
 72
    20
 73
    16
 74
     0
 42
0.0000000001
 43
0.0000000001
 40
0.0
 40
0.0
 40
0.0
 40
0.0
 40
0.2
 40
0.2
 40
0.2
 40
0.2
 40
0.4
 40
0.4
 40
0.4
 40
0.4
 40
0.6
 40
0.6
 40
0.6
 40
0.6
 40
1.0
 40
1.0
 40
1.0
 40
1.0
 10
-10.9746
 20
27.8062
 30
0.0
 10
-10.9746
 20
27.8062
 30
0.0
 10
-10.5518
 20
30.8022
 30
0.0
 10
-10.5518
 20
30.8022
 30
0.0
 10
-10.5518
 20
30.8022
 30
0.0
 10
-10.5518
 20
30.8022
 30
0.0
 10
-10.4579
 20
30.8022
 30
0.0
 10
-10.4579
 20
30.8022
 30
0.0
 10
-10.4579
 20
30.8022
 30
0.0
 10
-10.4579
 20
30.8022
 30
0.0
 10
-10.007
 20
27.8062
 30
0.0
 10
-10.007
 20
27.8062
 30
0.0
 10
-10.007
 20
27.8062
 30
0.0
 10
-10.007
 20
27.8062
 30
0.0
 10
-10.9746
 20
27.8062
 30
0.0
 10
-10.9746
 20
27.8062
 30
0.0
  0
SPLINE
  5
153
330
1F
100
AcDbEntity
  8
AXIS
 62
   250
100
AcDbSpline
210
0.0
220
0.0
230
1.0
 70
    11
 71
     3
 72
    40
 73
    36
 74
     0
 42
0.0000000001
 43
0.0000000001
 40
0.0
 40
0.0
 40
0.0
 40
0.0
 40
0.1
 40
0.1
 40
0.1
 40
0.1
 40
0.2
 40
0.2
 40
0.2
 40
0.2
 40
0.3
 40
0.3
 40
0.3
 40
0.3
 40
0.4
 40
0.4
 40
0.4
 40
0.4
 40
0.5
 40
0.5
 40
0.5
 40
0.5
 40
0.6
 40
0.6
 40
0.6
 40
0.6
 40
0.7
 40
0.7
 40
0.7
 40
0.7
 40
0.8
 40
0.8
 40
0.8
 40
0.8
 40
1.0
 40
1.0
 40
1.0
 40
1.0
 10
-4.4035
 20
36.5852
 30
0.0
 10
-4.4035
 20
36.5852
 30
0.0
 10
-4.6514
 20
36.5852
 30
0.0
 10
-4.6514
 20
36.5852
 30
0.0
 10
-4.6514
 20
36.5852
 30
0.0
 10
-4.6514
 20
36.5852
 30
0.0
 10
-4.6514
 20
38.1656
 30
0.0
 10
-4.6514
 20
38.1656
 30
0.0
 10
-4.6514
 20
38.1656
 30
0.0
 10
-4.7112
 20
38.1087
 30
0.0
 10
-4.7892
 20
38.0518
 30
0.0
 10
-4.8861
 20
37.9949
 30
0.0
 10
-4.8861
 20
37.9949
 30
0.0
 10
-4.9835
 20
37.938
 30
0.0
 10
-5.0705
 20
37.8952
 30
0.0
 10
-5.1477
 20
37.8669
 30
0.0
 10
-5.1477
 20
37.8669
 30
0.0
 10
-5.1477
 20
37.8669
 30
0.0
 10
-5.1477
 20
38.1064
 30
0.0
 10
-5.1477
 20
38.1064
 30
0.0
 10
-5.1477
 20
38.1064
 30
0.0
 10
-5.0089
 20
38.1717
 30
0.0
 10
-4.8875
 20
38.2508
 30
0.0
 10
-4.7836
 20
38.3434
 30
0.0
 10
-4.7836
 20
38.3434
 30
0.0
 10
-4.6801
 20
38.4366
 30
0.0
 10
-4.6063
 20
38.5264
 30
0.0
 10
-4.563
 20
38.6139
 30
0.0
 10
-4.563
 20
38.6139
 30
0.0
 10
-4.563
 20
38.6139
 30
0.0
 10
-4.4035
 20
38.6139
 30
0.0
 10
-4.4035
 20
38.6139
 30
0.0
 10
-4.4035
 20
38.6139
 30
0.0
 10
-4.4035
 20
38.6139
 30
0.0
 10
-4.4035
 20
36.5852
 30
0.0
 10
-4.4035
 20
36.5852
 30
0.0
  0
SPLINE
  5
154
330
1F
100
AcDbEntity
  8
AXIS
 62
   250
100
AcDbSpline
210
0.0
220
0.0
230
1.0
 70
    11
 71
     3
 72
    52
 73
    48
 74
     0
 42
0.0000000001
 43
0.0000000001
 40
0.0
 40
0.0
 40
0.0
 40
0.0
 40
0.0769230769230769
 40
0.0769230769230769
 40
0.0769230769230769
 40
0.0769230769230769
 40
0.1538461538461539
 40
0.1538461538461539
 40
0.1538461538461539
 40
0.1538461538461539
 40
0.2307692307692308
 40
0.2307692307692308
 40
0.2307692307692308
 40
0.2307692307692308
 40
0.3076923076923077
 40
0.3076923076923077
 40
0.3076923076923077
 40
0.3076923076923077
 40
0.3846153846153846
 40
0.3846153846153846
 40
0.3846153846153846
 40
0.3846153846153846
 40
0.4615384615384616
 40
0.4615384615384616
 40
0.4615384615384616
 40
0.4615384615384616
 40
0.5384615384615384
 40
0.5384615384615384
 40
0.5384615384615384
 40
0.5384615384615384
 40
0.6153846153846154
 40
0.6153846153846154
 40
0.6153846153846154
 40
0.6153846153846154
 40
0.6923076923076923
 40
0.6923076923076923
 40
0.6923076923076923
 40
0.6923076923076923
 40
0.7692307692307693
 40
0.7692307692307693
 40
0.7692307692307693
 40
0.7692307692307693
 40
0.8461538461538461
 40
0.8461538461538461
 40
0.8461538461538461
 40
0.8461538461538461
 40
1.0
 40
1.0
 40
1.0
 40
1.0
 10
-3.7681
 20
37.5814
 30
0.0
 10
-3.7681
 20
37.8204
 30
0.0
 10
-3.7436
 20
38.0128
 30
0.0
 10
-3.6942
 20
38.1581
 30
0.0
 10
-3.6942
 20
38.1581
 30
0.0
 10
-3.6453
 20
38.3039
 30
0.0
 10
-3.5719
 20
38.4163
 30
0.0
 10
-3.475
 20
38.4954
 30
0.0
 10
-3.475
 20
38.4954
 30
0.0
 10
-3.3781
 20
38.5744
 30
0.0
 10
-3.2563
 20
38.6139
 30
0.0
 10
-3.1096
 20
38.6139
 30
0.0
 10
-3.1096
 20
38.6139
 30
0.0
 10
-3.0009
 20
38.6139
 30
0.0
 10
-2.9059
 20
38.5918
 30
0.0
 10
-2.8241
 20
38.548
 30
0.0
 10
-2.8241
 20
38.548
 30
0.0
 10
-2.7422
 20
38.5048
 30
0.0
 10
-2.6749
 20
38.4417
 30
0.0
 10
-2.6213
 20
38.3594
 30
0.0
 10
-2.6213
 20
38.3594
 30
0.0
 10
-2.5682
 20
38.2771
 30
0.0
 10
-2.5263
 20
38.1769
 30
0.0
 10
-2.4962
 20
38.0589
 30
0.0
 10
-2.4962
 20
38.0589
 30
0.0
 10
-2.4656
 20
37.9408
 30
0.0
 10
-2.4506
 20
37.7818
 30
0.0
 10
-2.4506
 20
37.5814
 30
0.0
 10
-2.4506
 20
37.5814
 30
0.0
 10
-2.4506
 20
37.3444
 30
0.0
 10
-2.475
 20
37.1534
 30
0.0
 10
-2.5235
 20
37.0076
 30
0.0
 10
-2.5235
 20
37.0076
 30
0.0
 10
-2.5724
 20
36.8618
 30
0.0
 10
-2.6453
 20
36.7494
 30
0.0
 10
-2.7422
 20
36.6699
 30
0.0
 10
-2.7422
 20
36.6699
 30
0.0
 10
-2.8391
 20
36.5904
 30
0.0
 10
-2.9614
 20
36.5509
 30
0.0
 10
-3.1096
 20
36.5509
 30
0.0
 10
-3.1096
 20
36.5509
 30
0.0
 10
-3.3043
 20
36.5509
 30
0.0
 10
-3.4572
 20
36.6205
 30
0.0
 10
-3.5682
 20
36.7602
 30
0.0
 10
-3.5682
 20
36.7602
 30
0.0
 10
-3.7013
 20
36.9281
 30
0.0
 10
-3.7681
 20
37.2023
 30
0.0
 10
-3.7681
 20
37.5814
 30
0.0
  0
SPLINE
  5
155
330
1F
100
AcDbEntity
  8
AXIS
 62
   250
100
AcDbSpline
210
0.0
220
0.0
230
1.0
 70
    11
 71
     3
 72
    36
 73
    32
 74
     0
 42
0.0000000001
 43
0.0000000001
 40
0.0
 40
0.0
 40
0.0
 40
0.0
 40
0.1111111111111111
 40
0.1111111111111111
 40
0.1111111111111111
 40
0.1111111111111111
 40
0.2222222222222222
 40
0.2222222222222222
 40
0.2222222222222222
 40
0.2222222222222222
 40
0.3333333333333333
 40
0.3333333333333333
 40
0.3333333333333333
 40
0.3333333333333333
 40
0.4444444444444444
 40
0.4444444444444444
 40
0.4444444444444444
 40
0.4444444444444444
 40
0.5555555555555556
 40
0.5555555555555556
 40
0.5555555555555556
 40
0.5555555555555556
 40
0.6666666666666666
 40
0.6666666666666666
 40
0.6666666666666666
 40
0.6666666666666666
 40
0.7777777777777778
 40
0.7777777777777778
 40
0.7777777777777778
 40
0.7777777777777778
 40
1.0
 40
1.0
 40
1.0
 40
1.0
 10
-3.5131
 20
37.5814
 30
0.0
 10
-3.5131
 20
37.2498
 30
0.0
 10
-3.4741
 20
37.0292
 30
0.0
 10
-3.3965
 20
36.9192
 30
0.0
 10
-3.3965
 20
36.9192
 30
0.0
 10
-3.3189
 20
36.8096
 30
0.0
 10
-3.2234
 20
36.7545
 30
0.0
 10
-3.1096
 20
36.7545
 30
0.0
 10
-3.1096
 20
36.7545
 30
0.0
 10
-2.9953
 20
36.7545
 30
0.0
 10
-2.8998
 20
36.81
 30
0.0
 10
-2.8222
 20
36.9201
 30
0.0
 10
-2.8222
 20
36.9201
 30
0.0
 10
-2.7446
 20
37.0302
 30
0.0
 10
-2.7055
 20
37.2508
 30
0.0
 10
-2.7055
 20
37.5814
 30
0.0
 10
-2.7055
 20
37.5814
 30
0.0
 10
-2.7055
 20
37.914
 30
0.0
 10
-2.7446
 20
38.1351
 30
0.0
 10
-2.8222
 20
38.2442
 30
0.0
 10
-2.8222
 20
38.2442
 30
0.0
 10
-2.8998
 20
38.3538
 30
0.0
 10
-2.9962
 20
38.4083
 30
0.0
 10
-3.1119
 20
38.4083
 30
0.0
 10
-3.1119
 20
38.4083
 30
0.0
 10
-3.2262
 20
38.4083
 30
0.0
 10
-3.317
 20
38.3599
 30
0.0
 10
-3.3852
 20
38.2635
 30
0.0
 10
-3.3852
 20
38.2635
 30
0.0
 10
-3.4703
 20
38.1407
 30
0.0
 10
-3.5131
 20
37.913
 30
0.0
 10
-3.5131
 20
37.5814
 30
0.0
  0
SPLINE
  5
156
330
1F
100
AcDbEntity
  8
AXIS
 62
   250
100
AcDbSpline
210
0.0
220
0.0
230
1.0
 70
    11
 71
     3
 72
    20
 73
    16
 74
     0
 42
0.0000000001
 43
0.0000000001
 40
0.0
 40
0.0
 40
0.0
 40
0.0
 40
0.2
 40
0.2
 40
0.2
 40
0.2
 40
0.4
 40
0.4
 40
0.4
 40
0.4
 40
0.6
 40
0.6
 40
0.6
 40
0.6
 40
1.0
 40
1.0
 40
1.0
 40
1.0
 10
-7.6415
 20
36.0915
 30
0.0
 10
-7.6415
 20
36.0915
 30
0.0
 10
-4.6455
 20
35.6687
 30
0.0
 10
-4.6455
 20
35.6687
 30
0.0
 10
-4.6455
 20
35.6687
 30
0.0
 10
-4.6455
 20
35.6687
 30
0.0
 10
-4.6455
 20
35.5748
 30
0.0
 10
-4.6455
 20
35.5748
 30
0.0
 10
-4.6455
 20
35.5748
 30
0.0
 10
-4.6455
 20
35.5748
 30
0.0
 10
-7.6415
 20
35.1239
 30
0.0
 10
-7.6415
 20
35.1239
 30
0.0
 10
-7.6415
 20
35.1239
 30
0.0
 10
-7.6415
 20
35.1239
 30
0.0
 10
-7.6415
 20
36.0915
 30
0.0
 10
-7.6415
 20
36.0915
 30
0.0
  0
SPLINE
  5
157
330
1F
100
AcDbEntity
  8
AXIS
 62
   250
100
AcDbSpline
210
0.0
220
0.0
230
1.0
 70
    11
 71
     3
 72
    20
 73
    16
 74
     0
 42
0.0000000001
 43
0.0000000001
 40
0.0
 40
0.0
 40
0.0
 40
0.0
 40
0.2
 40
0.2
 40
0.2
 40
0.2
 40
0.4
 40
0.4
 40
0.4
 40
0.4
 40
0.6
 40
0.6
 40
0.6
 40
0.6
 40
1.0
 40
1.0
 40
1.0
 40
1.0
 10
0.1241
 20
35.1699
 30
0.0
 10
0.1241
 20
35.1699
 30
0.0
 10
-2.8719
 20
35.5927
 30
0.0
 10
-2.8719
 20
35.5927
 30
0.0
 10
-2.8719
 20
35.5927
 30
0.0
 10
-2.8719
 20
35.5927
 30
0.0
 10
-2.8719
 20
35.6866
 30
0.0
 10
-2.8719
 20
35.6866
 30
0.0
 10
-2.8719
 20
35.6866
 30
0.0
 10
-2.8719
 20
35.6866
 30
0.0
 10
0.1241
 20
36.1375
 30
0.0
 10
0.1241
 20
36.1375
 30
0.0
 10
0.1241
 20
36.1375
 30
0.0
 10
0.1241
 20
36.1375
 30
0.0
 10
0.1241
 20
35.1699
 30
0.0
 10
0.1241
 20
35.1699
 30
0.0
  0
ENDSEC
  0
SECTION
  2
OBJECTS
  0
DICTIONARY
  5
C
330
0
100
AcDbDictionary
  3
ACAD_GROUP
350
D
  3
ACAD_LAYOUT
350
1A
  3
ACAD_MATERIAL
350
3B
  3
ACAD_MLEADERSTYLE
350
17A
  3
ACAD_MLINESTYLE
350
17
  3
ACAD_PLOTSETTINGS
350
19
  3
ACAD_VISUALSTYLE
350
2A
  3
ACDBHEADERROUNDTRIPXREC
350
158
  3
ACDBVARIABLEDICTIONARY
350
178
  0
DICTIONARY
  5
D
102
{ACAD_REACTORS
330
C
102
}
330
C
100
AcDbDictionary
  0
DICTIONARY
  5
1A
102
{ACAD_REACTORS
330
C
102
}
330
C
100
AcDbDictionary
  0
DICTIONARY
  5
3B
102
{ACAD_REACTORS
330
C
102
}
330
C
100
AcDbDictionary
  3
BYBLOCK
350
3D
  3
BYLAYER
350
3C
  3
GLOBAL
350
3E
  0
DICTIONARY
  5
17A
102
{ACAD_REACTORS
330
C
102
}
330
C
100
AcDbDictionary
  0
DICTIONARY
  5
17
102
{ACAD_REACTORS
330
C
102
}
330
C
100
AcDbDictionary
  3
STANDARD
350
18
  0
DICTIONARY
  5
19
102
{ACAD_REACTORS
330
C
102
}
330
C
100
AcDbDictionary
  0
DICTIONARY
  5
2A
102
{ACAD_REACTORS
330
C
102
}
330
C
100
AcDbDictionary
  3
2DWIREFRAME
350
2F
  3
3D_HIDDEN
350
31
  3
3DWIREFRAME
350
30
  3
BASIC
350
32
  3
BRIGHTEN
350
36
  3
COLORCHANGE
350
3A
  3
CONCEPTUAL
350
34
  3
DIM
350
35
  3
FACEPATTERN
350
39
  3
FLAT
350
2B
  3
FLATWITHEDGES
350
2C
  3
GOURAUD
350
2D
  3
GOURAUDWITHEDGES
350
2E
  3
LINEPATTERN
350
38
  3
REALISTIC
350
33
  3
THICKEN
350
37
  0
DICTIONARY
  5
158
102
{ACAD_REACTORS
330
C
102
}
330
C
100
AcDbDictionary
  3
CEPSNTYPE
350
161
  3
DIMSTYLEDATA
350
177
  3
FINGERPRINTGUID
350
162
  3
HYPERLINKBASE
350
15B
  3
INSUNITS
350
160
  3
LAYOUTDICT
350
15D
  3
LWETCUNION
350
15F
  3
PLOTSETDICT
350
15E
  3
PSVPSCALE
350
164
  3
PUCSBASE
350
167
  3
PUCSORGBACK
350
16D
  3
PUCSORGBOTTOM
350
169
  3
PUCSORGFRONT
350
16C
  3
PUCSORGLEFT
350
16A
  3
PUCSORGRIGHT
350
16B
  3
PUCSORGTOP
350
168
  3
PUCSORTHOREF
350
165
  3
PUCSORTHOVIEW
350
166
  3
STYLESHEET
350
15C
  3
TSTACKALIGN
350
159
  3
TSTACKSIZE
350
15A
  3
UCSBASE
350
170
  3
UCSORGBACK
350
176
  3
UCSORGBOTTOM
350
172
  3
UCSORGFRONT
350
175
  3
UCSORGLEFT
350
173
  3
UCSORGRIGHT
350
174
  3
UCSORGTOP
350
171
  3
UCSORTHOREF
350
16E
  3
UCSORTHOVIEW
350
16F
  3
VERSIONGUID
350
163
  0
DICTIONARY
  5
178
102
{ACAD_REACTORS
330
C
102
}
330
C
100
AcDbDictionary
  3
DIMASSOC
350
17B
  3
HIDETEXT
350
17C
  0
MATERIAL
  5
3D
102
{ACAD_REACTORS
330
3B
102
}
102
{ACAD_XDICTIONARY
360
17F
102
}
330
3B
100
AcDbMaterial
  1
ByBlock
  0
MATERIAL
  5
3C
102
{ACAD_REACTORS
330
3B
102
}
102
{ACAD_XDICTIONARY
360
17D
102
}
330
3B
100
AcDbMaterial
  1
ByLayer
  0
MATERIAL
  5
3E
102
{ACAD_REACTORS
330
3B
102
}
102
{ACAD_XDICTIONARY
360
181
102
}
330
3B
100
AcDbMaterial
  1
Global
  0
MLINESTYLE
  5
18
102
{ACAD_REACTORS
330
17
102
}
330
17
100
AcDbMlineStyle
  2
Standard
 70
     0
  3

 62
   256
 51
90.0
 52
90.0
 71
     2
 49
0.5
 62
   256
  6
BYLAYER
 49
-0.5
 62
   256
  6
BYLAYER
  0
ACAD_PROXY_OBJECT
  5
2F
102
{ACAD_REACTORS
330
2A
102
}
330
2A
100
AcDbProxyObject
 90
      499
 91
      501
 93
      436
310
42CC9915DA5C99599C985B595049028333333333333E3BF0000000000000FB0107901411070040501600405405064090741402480A0340
1001
ACAD
1000
AcDbSavedByObjectVersion
1070
     0
  0
ACAD_PROXY_OBJECT
  5
31
102
{ACAD_REACTORS
330
2A
102
}
330
2A
100
AcDbProxyObject
 90
      499
 91
      501
 93
      500
310
424CD108121A5919195B90640502408333333333333E3BF0000000000000FB01079024090700405020000000000001110200405405064090740C02480A0340
1001
ACAD
1000
AcDbSavedByObjectVersion
1070
     0
  0
ACAD_PROXY_OBJECT
  5
30
102
{ACAD_REACTORS
330
2A
102
}
330
2A
100
AcDbProxyObject
 90
      499
 91
      501
 93
      436
310
42CCD915DA5C99599C985B595059028333333333333E3BF0000000000000FB0107901411070040501600405405064090741402480A0340
1001
ACAD
1000
AcDbSavedByObjectVersion
1070
     0
  0
ACAD_PROXY_OBJECT
  5
32
102
{ACAD_REACTORS
330
2A
102
}
330
2A
100
AcDbProxyObject
 90
      499
 91
      501
 93
      388
310
4150985CDA58D07406404333333333333E3BF0000000000000FB0107A41107004050150841D405064090741402480A0350
1001
ACAD
1000
AcDbSavedByObjectVersion
1070
     0
  0
ACAD_PROXY_OBJECT
  5
36
102
{ACAD_REACTORS
330
2A
102
}
330
2A
100
AcDbProxyObject
 90
      499
 91
      501
 93
      428
310
42109C9A59DA1D195B90C409028333333333333E3BF0000000000000FB010790141107004050150841D405064090741402480A029950
1001
ACAD
1000
AcDbSavedByObjectVersion
1070
     0
  0
ACAD_PROXY_OBJECT
  5
3A
102
{ACAD_REACTORS
330
2A
102
}
330
2A
100
AcDbProxyObject
 90
      499
 91
      501
 93
      452
310
42D0DBDB1BDC90DA185B99D95104090240C333333333333E3BF0000000000000FB0108901411070040501508421405064090741402480A0350
1001
ACAD
1000
AcDbSavedByObjectVersion
1070
     0
  0
ACAD_PROXY_OBJECT
  5
34
102
{ACAD_REACTORS
330
2A
102
}
330
2A
100
AcDbProxyObject
 90
      499
 91
      501
 93
      500
310
4290DBDB98D95C1D1D585B10940D028333333333333E3BF0000000000000FB0107902409070040501000000000000111010841D405064090740C02480A0340
1001
ACAD
1000
AcDbSavedByObjectVersion
1070
     0
  0
ACAD_PROXY_OBJECT
  5
35
102
{ACAD_REACTORS
330
2A
102
}
330
2A
100
AcDbProxyObject
 90
      499
 91
      501
 93
      412
310
40D11A5B50B409028333333333333E3BF0000000000000FB010790141107004050150841D405064090741402480A02677FFFFFD0
1001
ACAD
1000
AcDbSavedByObjectVersion
1070
     0
  0
ACAD_PROXY_OBJECT
  5
39
102
{ACAD_REACTORS
330
2A
102
}
330
2A
100
AcDbProxyObject
 90
      499
 91
      501
 93
      444
310
42D19858D95C185D1D195C9B90F409028333333333333E3BF0000000000000FB010790141107004050150841D405064090741402480A0350
1001
ACAD
1000
AcDbSavedByObjectVersion
1070
     0
  0
ACAD_PROXY_OBJECT
  5
2B
102
{ACAD_REACTORS
330
2A
102
}
330
2A
100
AcDbProxyObject
 90
      499
 91
      501
 93
      388
310
41119B185D240901404333333333333E3BF0000000000000F9010740A41107004050150841D405064090741402480A1B50
1001
ACAD
1000
AcDbSavedByObjectVersion
1070
     0
  0
ACAD_PROXY_OBJECT
  5
2C
102
{ACAD_REACTORS
330
2A
102
}
330
2A
100
AcDbProxyObject
 90
      499
 91
      501
 93
      476
310
43519B185D15DA5D1A115919D95CD0140901404333333333333E3BF0000000000000F9010740901411070040501600405405064090741402480A1B50
1001
ACAD
1000
AcDbSavedByObjectVersion
1070
     0
  0
ACAD_PROXY_OBJECT
  5
2D
102
{ACAD_REACTORS
330
2A
102
}
330
2A
100
AcDbProxyObject
 90
      499
 91
      501
 93
      412
310
41D1DBDD5C985D5910240902404333333333333E3BF0000000000000F9010740A411070040501641D405064090741402480A1B50
1001
ACAD
1000
AcDbSavedByObjectVersion
1070
     0
  0
ACAD_PROXY_OBJECT
  5
2E
102
{ACAD_REACTORS
330
2A
102
}
330
2A
100
AcDbProxyObject
 90
      499
 91
      501
 93
      500
310
4411DBDD5C985D5915DA5D1A115919D95CD0340902404333333333333E3BF0000000000000F9010740901411070040501600405405064090741402480A1B50
1001
ACAD
1000
AcDbSavedByObjectVersion
1070
     0
  0
ACAD_PROXY_OBJECT
  5
38
102
{ACAD_REACTORS
330
2A
102
}
330
2A
100
AcDbProxyObject
 90
      499
 91
      501
 93
      444
310
42D31A5B995C185D1D195C9B90E409028333333333333E3BF0000000000000FB010790141107004050750841D405064090741402483A0350
1001
ACAD
1000
AcDbSavedByObjectVersion
1070
     0
  0
ACAD_PROXY_OBJECT
  5
33
102
{ACAD_REACTORS
330
2A
102
}
330
2A
100
AcDbProxyObject
 90
      499
 91
      501
 93
      420
310
425499585B1A5CDD1A58D08409028333333333333E3BF0000000000000FB01079019070040501508421405064090741402480A1B40
1001
ACAD
1000
AcDbSavedByObjectVersion
1070
     0
  0
ACAD_PROXY_OBJECT
  5
37
102
{ACAD_REACTORS
330
2A
102
}
330
2A
100
AcDbProxyObject
 90
      499
 91
      501
 93
      412
310
41D51A1A58DAD95B90D409028333333333333E3BF0000000000000FB010790141107004050150C41D405064090741402480A0350
1001
ACAD
1000
AcDbSavedByObjectVersion
1070
     0
  0
XRECORD
  5
161
102
{ACAD_REACTORS
330
158
102
}
330
158
100
AcDbXrecord
 90
        0
  0
XRECORD
  5
177
102
{ACAD_REACTORS
330
158
102
}
330
158
100
AcDbXrecord
1000
DSTYLE
1002
{
1070
   340
340
11
1002
}
  0
XRECORD
  5
162
102
{ACAD_REACTORS
330
158
102
}
330
158
100
AcDbXrecord
  1
{CC6CBFA7-39B6-44CC-AF9F-2BF2F07CD8D7}
  0
XRECORD
  5
15B
102
{ACAD_REACTORS
330
158
102
}
330
158
100
AcDbXrecord
  1

  0
XRECORD
  5
160
102
{ACAD_REACTORS
330
158
102
}
330
158
100
AcDbXrecord
 90
        4
  0
XRECORD
  5
15D
102
{ACAD_REACTORS
330
158
102
}
330
158
100
AcDbXrecord
340
1A
  0
XRECORD
  5
15F
102
{ACAD_REACTORS
330
158
102
}
330
158
100
AcDbXrecord
 90
    10781
  0
XRECORD
  5
15E
102
{ACAD_REACTORS
330
158
102
}
330
158
100
AcDbXrecord
340
19
  0
XRECORD
  5
164
102
{ACAD_REACTORS
330
158
102
}
330
158
100
AcDbXrecord
 40
0.0
  0
XRECORD
  5
167
102
{ACAD_REACTORS
330
158
102
}
330
158
100
AcDbXrecord
340
0
  0
XRECORD
  5
16D
102
{ACAD_REACTORS
330
158
102
}
330
158
100
AcDbXrecord
 10
0.0
 20
0.0
 30
0.0
  0
XRECORD
  5
169
102
{ACAD_REACTORS
330
158
102
}
330
158
100
AcDbXrecord
 10
0.0
 20
0.0
 30
0.0
  0
XRECORD
  5
16C
102
{ACAD_REACTORS
330
158
102
}
330
158
100
AcDbXrecord
 10
0.0
 20
0.0
 30
0.0
  0
XRECORD
  5
16A
102
{ACAD_REACTORS
330
158
102
}
330
158
100
AcDbXrecord
 10
0.0
 20
0.0
 30
0.0
  0
XRECORD
  5
16B
102
{ACAD_REACTORS
330
158
102
}
330
158
100
AcDbXrecord
 10
0.0
 20
0.0
 30
0.0
  0
XRECORD
  5
168
102
{ACAD_REACTORS
330
158
102
}
330
158
100
AcDbXrecord
 10
0.0
 20
0.0
 30
0.0
  0
XRECORD
  5
165
102
{ACAD_REACTORS
330
158
102
}
330
158
100
AcDbXrecord
340
0
  0
XRECORD
  5
166
102
{ACAD_REACTORS
330
158
102
}
330
158
100
AcDbXrecord
 70
     0
  0
XRECORD
  5
15C
102
{ACAD_REACTORS
330
158
102
}
330
158
100
AcDbXrecord
  1

  0
XRECORD
  5
159
102
{ACAD_REACTORS
330
158
102
}
330
158
100
AcDbXrecord
 90
        1
  0
XRECORD
  5
15A
102
{ACAD_REACTORS
330
158
102
}
330
158
100
AcDbXrecord
 90
       70
  0
XRECORD
  5
170
102
{ACAD_REACTORS
330
158
102
}
330
158
100
AcDbXrecord
340
0
  0
XRECORD
  5
176
102
{ACAD_REACTORS
330
158
102
}
330
158
100
AcDbXrecord
 10
0.0
 20
0.0
 30
0.0
  0
XRECORD
  5
172
102
{ACAD_REACTORS
330
158
102
}
330
158
100
AcDbXrecord
 10
0.0
 20
0.0
 30
0.0
  0
XRECORD
  5
175
102
{ACAD_REACTORS
330
158
102
}
330
158
100
AcDbXrecord
 10
0.0
 20
0.0
 30
0.0
  0
XRECORD
  5
173
102
{ACAD_REACTORS
330
158
102
}
330
158
100
AcDbXrecord
 10
0.0
 20
0.0
 30
0.0
  0
XRECORD
  5
174
102
{ACAD_REACTORS
330
158
102
}
330
158
100
AcDbXrecord
 10
0.0
 20
0.0
 30
0.0
  0
XRECORD
  5
171
102
{ACAD_REACTORS
330
158
102
}
330
158
100
AcDbXrecord
 10
0.0
 20
0.0
 30
0.0
  0
XRECORD
  5
16E
102
{ACAD_REACTORS
330
158
102
}
330
158
100
AcDbXrecord
340
0
  0
XRECORD
  5
16F
102
{ACAD_REACTORS
330
158
102
}
330
158
100
AcDbXrecord
 70
     0
  0
XRECORD
  5
163
102
{ACAD_REACTORS
330
158
102
}
330
158
100
AcDbXrecord
  1
{FAEB1C32-E019-11D5-929B-00C0DF256EC4}
  0
DICTIONARYVAR
  5
17B
102
{ACAD_REACTORS
330
178
102
}
330
178
100
DictionaryVariables
280
     0
  1
2
  0
DICTIONARYVAR
  5
17C
102
{ACAD_REACTORS
330
178
102
}
330
178
100
DictionaryVariables
280
     0
  1
1
  0
DICTIONARY
  5
17F
330
3D
100
AcDbDictionary
280
     1
  3
ACAD_XREC_ROUNDTRIP
360
180
  0
DICTIONARY
  5
17D
330
3C
100
AcDbDictionary
280
     1
  3
ACAD_XREC_ROUNDTRIP
360
17E
  0
DICTIONARY
  5
181
330
3E
100
AcDbDictionary
280
     1
  3
ACAD_XREC_ROUNDTRIP
360
182
  0
XRECORD
  5
180
102
{ACAD_REACTORS
330
17F
102
}
330
17F
100
AcDbXrecord
102
MATERIAL
148
0.0
149
0.0
149
0.0
 93
        0
 94
      127
282
     0
 72
     1
 77
     1
171
     1
175
     1
179
     1
273
     0
  0
XRECORD
  5
17E
102
{ACAD_REACTORS
330
17D
102
}
330
17D
100
AcDbXrecord
102
MATERIAL
148
0.0
149
0.0
149
0.0
 93
        0
 94
      127
282
     0
 72
     1
 77
     1
171
     1
175
     1
179
     1
273
     0
  0
XRECORD
  5
182
102
{ACAD_REACTORS
330
181
102
}
330
181
100
AcDbXrecord
102
MATERIAL
148
0.0
149
0.0
149
0.0
 93
        0
 94
      127
282
     0
 72
     1
 77
     1
171
     1
175
     1
179
     1
273
     0
  0
ENDSEC
  0
EOF
